ISO-10303-21;
HEADER;
FILE_DESCRIPTION( ( 'STEP AP214' ), '1' );
FILE_NAME( '//goodhand-server/Shared Folders/GoodHand Data/Kipp CAD/K0676/K0676.2506X030.stp', '2020-12-09T11:09:44', ( '' ), ( '' ), ' ', 'PARTsolutions', ' ' );
FILE_SCHEMA( ( 'AUTOMOTIVE_DESIGN { 1 0 10303 214 1 1 1 1 }' ) );
ENDSEC;
DATA;
#1 = MECHANICAL_DESIGN_GEOMETRIC_PRESENTATION_REPRESENTATION( ' ', ( #10, #11, #12, #13, #14, #15, #16, #17, #18, #19, #20 ), #6 );
#2 = PRODUCT_DEFINITION_CONTEXT( '', #21, 'design' );
#3 = APPLICATION_PROTOCOL_DEFINITION( 'international standard', 'automotive_design', 2001, #21 );
#4 = PRODUCT_CATEGORY_RELATIONSHIP( 'NONE', 'NONE', #22, #23 );
#5 = SHAPE_DEFINITION_REPRESENTATION( #24, #25 );
#6 =  ( GEOMETRIC_REPRESENTATION_CONTEXT( 3 )GLOBAL_UNCERTAINTY_ASSIGNED_CONTEXT( ( #28 ) )GLOBAL_UNIT_ASSIGNED_CONTEXT( ( #30, #31, #32 ) )REPRESENTATION_CONTEXT( 'NONE', 'WORKSPACE' ) );
#10 = STYLED_ITEM( '', ( #34 ), #35 );
#11 = STYLED_ITEM( '', ( #36 ), #37 );
#12 = STYLED_ITEM( '', ( #38 ), #39 );
#13 = STYLED_ITEM( '', ( #40 ), #41 );
#14 = STYLED_ITEM( '', ( #42 ), #43 );
#15 = STYLED_ITEM( '', ( #44 ), #45 );
#16 = STYLED_ITEM( '', ( #46 ), #47 );
#17 = STYLED_ITEM( '', ( #48 ), #49 );
#18 = STYLED_ITEM( '', ( #50 ), #51 );
#19 = STYLED_ITEM( '', ( #52 ), #53 );
#20 = STYLED_ITEM( '', ( #54 ), #55 );
#21 = APPLICATION_CONTEXT( 'core data for automotive mechanical design processes' );
#22 = PRODUCT_CATEGORY( 'part', 'NONE' );
#23 = PRODUCT_RELATED_PRODUCT_CATEGORY( 'detail', ' ', ( #56 ) );
#24 = PRODUCT_DEFINITION_SHAPE( 'NONE', 'NONE', #57 );
#25 = ADVANCED_BREP_SHAPE_REPRESENTATION( '_K0676.2506X030', ( #58, #59 ), #6 );
#28 = UNCERTAINTY_MEASURE_WITH_UNIT( LENGTH_MEASURE( 0.00100000000000000 ), #30, '', '' );
#30 =  ( CONVERSION_BASED_UNIT( 'MILLIMETRE', #62 )LENGTH_UNIT(  )NAMED_UNIT( #65 ) );
#31 =  ( NAMED_UNIT( #67 )PLANE_ANGLE_UNIT(  )SI_UNIT( $, .RADIAN. ) );
#32 =  ( NAMED_UNIT( #67 )SI_UNIT( $, .STERADIAN. )SOLID_ANGLE_UNIT(  ) );
#34 = PRESENTATION_STYLE_ASSIGNMENT( ( #73 ) );
#35 = ADVANCED_FACE( '', ( #74 ), #75, .F. );
#36 = PRESENTATION_STYLE_ASSIGNMENT( ( #76 ) );
#37 = ADVANCED_FACE( '', ( #77 ), #78, .T. );
#38 = PRESENTATION_STYLE_ASSIGNMENT( ( #79 ) );
#39 = ADVANCED_FACE( '', ( #80, #81 ), #82, .T. );
#40 = PRESENTATION_STYLE_ASSIGNMENT( ( #83 ) );
#41 = ADVANCED_FACE( '', ( #84 ), #85, .T. );
#42 = PRESENTATION_STYLE_ASSIGNMENT( ( #86 ) );
#43 = ADVANCED_FACE( '', ( #87 ), #88, .T. );
#44 = PRESENTATION_STYLE_ASSIGNMENT( ( #89 ) );
#45 = ADVANCED_FACE( '', ( #90 ), #91, .T. );
#46 = PRESENTATION_STYLE_ASSIGNMENT( ( #92 ) );
#47 = ADVANCED_FACE( '', ( #93, #94 ), #95, .T. );
#48 = PRESENTATION_STYLE_ASSIGNMENT( ( #96 ) );
#49 = ADVANCED_FACE( '', ( #97 ), #98, .T. );
#50 = PRESENTATION_STYLE_ASSIGNMENT( ( #99 ) );
#51 = ADVANCED_FACE( '', ( #100 ), #101, .T. );
#52 = PRESENTATION_STYLE_ASSIGNMENT( ( #102 ) );
#53 = ADVANCED_FACE( '', ( #103, #104 ), #105, .T. );
#54 = PRESENTATION_STYLE_ASSIGNMENT( ( #106 ) );
#55 = ADVANCED_FACE( '', ( #107 ), #108, .F. );
#56 = PRODUCT( '_K0676.2506X030', '_K0676.2506X030', 'PART-_K0676.2506X030-DESC', ( #109 ) );
#57 = PRODUCT_DEFINITION( 'NONE', 'NONE', #110, #2 );
#58 = MANIFOLD_SOLID_BREP( '_K0676.2506X030', #111 );
#59 = AXIS2_PLACEMENT_3D( '', #112, #113, #114 );
#62 = LENGTH_MEASURE_WITH_UNIT( LENGTH_MEASURE( 1.00000000000000 ), #115 );
#65 = DIMENSIONAL_EXPONENTS( 1.00000000000000, 0.000000000000000, 0.000000000000000, 0.000000000000000, 0.000000000000000, 0.000000000000000, 0.000000000000000 );
#67 = DIMENSIONAL_EXPONENTS( 0.000000000000000, 0.000000000000000, 0.000000000000000, 0.000000000000000, 0.000000000000000, 0.000000000000000, 0.000000000000000 );
#73 = SURFACE_STYLE_USAGE( .BOTH., #116 );
#74 = FACE_OUTER_BOUND( '', #117, .T. );
#75 = PLANE( '', #118 );
#76 = SURFACE_STYLE_USAGE( .BOTH., #119 );
#77 = FACE_OUTER_BOUND( '', #120, .T. );
#78 = PLANE( '', #121 );
#79 = SURFACE_STYLE_USAGE( .BOTH., #122 );
#80 = FACE_OUTER_BOUND( '', #123, .T. );
#81 = FACE_BOUND( '', #124, .T. );
#82 = CONICAL_SURFACE( '', #125, 2.38650000000000, 0.785398163400000 );
#83 = SURFACE_STYLE_USAGE( .BOTH., #126 );
#84 = FACE_OUTER_BOUND( '', #127, .T. );
#85 = PLANE( '', #128 );
#86 = SURFACE_STYLE_USAGE( .BOTH., #129 );
#87 = FACE_OUTER_BOUND( '', #130, .T. );
#88 = PLANE( '', #131 );
#89 = SURFACE_STYLE_USAGE( .BOTH., #132 );
#90 = FACE_OUTER_BOUND( '', #133, .T. );
#91 = PLANE( '', #134 );
#92 = SURFACE_STYLE_USAGE( .BOTH., #135 );
#93 = FACE_OUTER_BOUND( '', #136, .T. );
#94 = FACE_OUTER_BOUND( '', #137, .T. );
#95 = CYLINDRICAL_SURFACE( '', #138, 3.00000000000000 );
#96 = SURFACE_STYLE_USAGE( .BOTH., #139 );
#97 = FACE_OUTER_BOUND( '', #140, .T. );
#98 = PLANE( '', #141 );
#99 = SURFACE_STYLE_USAGE( .BOTH., #142 );
#100 = FACE_OUTER_BOUND( '', #143, .T. );
#101 = PLANE( '', #144 );
#102 = SURFACE_STYLE_USAGE( .BOTH., #145 );
#103 = FACE_BOUND( '', #146, .T. );
#104 = FACE_OUTER_BOUND( '', #147, .T. );
#105 = PLANE( '', #148 );
#106 = SURFACE_STYLE_USAGE( .BOTH., #149 );
#107 = FACE_OUTER_BOUND( '', #150, .T. );
#108 = PLANE( '', #151 );
#109 = PRODUCT_CONTEXT( '', #21, 'mechanical' );
#110 = PRODUCT_DEFINITION_FORMATION_WITH_SPECIFIED_SOURCE( ' ', 'NONE', #56, .NOT_KNOWN. );
#111 = CLOSED_SHELL( '', ( #43, #55, #49, #51, #37, #41, #45, #53, #35, #39, #47 ) );
#112 = CARTESIAN_POINT( '', ( 0.000000000000000, 0.000000000000000, 0.000000000000000 ) );
#113 = DIRECTION( '', ( 0.000000000000000, 0.000000000000000, 1.00000000000000 ) );
#114 = DIRECTION( '', ( 1.00000000000000, 0.000000000000000, 0.000000000000000 ) );
#115 =  ( LENGTH_UNIT(  )NAMED_UNIT( #65 )SI_UNIT( .MILLI., .METRE. ) );
#116 = SURFACE_SIDE_STYLE( '', ( #153 ) );
#117 = EDGE_LOOP( '', ( #154 ) );
#118 = AXIS2_PLACEMENT_3D( '', #155, #156, #157 );
#119 = SURFACE_SIDE_STYLE( '', ( #158 ) );
#120 = EDGE_LOOP( '', ( #159, #160, #161, #162 ) );
#121 = AXIS2_PLACEMENT_3D( '', #163, #164, #165 );
#122 = SURFACE_SIDE_STYLE( '', ( #166 ) );
#123 = EDGE_LOOP( '', ( #167 ) );
#124 = EDGE_LOOP( '', ( #168 ) );
#125 = AXIS2_PLACEMENT_3D( '', #169, #170, #171 );
#126 = SURFACE_SIDE_STYLE( '', ( #172 ) );
#127 = EDGE_LOOP( '', ( #173, #174, #175, #176 ) );
#128 = AXIS2_PLACEMENT_3D( '', #177, #178, #179 );
#129 = SURFACE_SIDE_STYLE( '', ( #180 ) );
#130 = EDGE_LOOP( '', ( #181, #182, #183, #184 ) );
#131 = AXIS2_PLACEMENT_3D( '', #185, #186, #187 );
#132 = SURFACE_SIDE_STYLE( '', ( #188 ) );
#133 = EDGE_LOOP( '', ( #189, #190, #191, #192 ) );
#134 = AXIS2_PLACEMENT_3D( '', #193, #194, #195 );
#135 = SURFACE_SIDE_STYLE( '', ( #196 ) );
#136 = EDGE_LOOP( '', ( #197 ) );
#137 = EDGE_LOOP( '', ( #198 ) );
#138 = AXIS2_PLACEMENT_3D( '', #199, #200, #201 );
#139 = SURFACE_SIDE_STYLE( '', ( #202 ) );
#140 = EDGE_LOOP( '', ( #203, #204, #205, #206 ) );
#141 = AXIS2_PLACEMENT_3D( '', #207, #208, #209 );
#142 = SURFACE_SIDE_STYLE( '', ( #210 ) );
#143 = EDGE_LOOP( '', ( #211, #212, #213, #214 ) );
#144 = AXIS2_PLACEMENT_3D( '', #215, #216, #217 );
#145 = SURFACE_SIDE_STYLE( '', ( #218 ) );
#146 = EDGE_LOOP( '', ( #219 ) );
#147 = EDGE_LOOP( '', ( #220, #221, #222, #223, #224, #225 ) );
#148 = AXIS2_PLACEMENT_3D( '', #226, #227, #228 );
#149 = SURFACE_SIDE_STYLE( '', ( #229 ) );
#150 = EDGE_LOOP( '', ( #230, #231, #232, #233, #234, #235 ) );
#151 = AXIS2_PLACEMENT_3D( '', #236, #237, #238 );
#153 = SURFACE_STYLE_FILL_AREA( #239 );
#154 = ORIENTED_EDGE( '', *, *, #240, .F. );
#155 = CARTESIAN_POINT( '', ( 0.000000000000000, 37.5000000000000, 0.000000000000000 ) );
#156 = DIRECTION( '', ( 0.000000000000000, -1.00000000000000, -0.000000000000000 ) );
#157 = DIRECTION( '', ( 0.000000000000000, 0.000000000000000, -1.00000000000000 ) );
#158 = SURFACE_STYLE_FILL_AREA( #241 );
#159 = ORIENTED_EDGE( '', *, *, #242, .F. );
#160 = ORIENTED_EDGE( '', *, *, #243, .F. );
#161 = ORIENTED_EDGE( '', *, *, #244, .T. );
#162 = ORIENTED_EDGE( '', *, *, #245, .T. );
#163 = CARTESIAN_POINT( '', ( -12.5000000000000, 7.50000000000000, 7.21687836487032 ) );
#164 = DIRECTION( '', ( -0.499524110790929, -0.0436193873653360, 0.865201139495554 ) );
#165 = DIRECTION( '', ( 0.866025403784439, 2.42136240865198E-18, 0.500000000000000 ) );
#166 = SURFACE_STYLE_FILL_AREA( #246 );
#167 = ORIENTED_EDGE( '', *, *, #247, .F. );
#168 = ORIENTED_EDGE( '', *, *, #240, .T. );
#169 = CARTESIAN_POINT( '', ( 0.000000000000000, 37.5000000000000, 0.000000000000000 ) );
#170 = DIRECTION( '', ( -0.000000000000000, -1.00000000000000, -0.000000000000000 ) );
#171 = DIRECTION( '', ( 0.000000000000000, 0.000000000000000, -1.00000000000000 ) );
#172 = SURFACE_STYLE_FILL_AREA( #248 );
#173 = ORIENTED_EDGE( '', *, *, #249, .F. );
#174 = ORIENTED_EDGE( '', *, *, #245, .F. );
#175 = ORIENTED_EDGE( '', *, *, #250, .T. );
#176 = ORIENTED_EDGE( '', *, *, #251, .T. );
#177 = CARTESIAN_POINT( '', ( 0.000000000000000, 7.50000000000000, 14.4337567297406 ) );
#178 = DIRECTION( '', ( 0.499524110790929, -0.0436193873653360, 0.865201139495554 ) );
#179 = DIRECTION( '', ( 0.866025403784439, -2.42136240865198E-18, -0.500000000000000 ) );
#180 = SURFACE_STYLE_FILL_AREA( #252 );
#181 = ORIENTED_EDGE( '', *, *, #253, .F. );
#182 = ORIENTED_EDGE( '', *, *, #254, .F. );
#183 = ORIENTED_EDGE( '', *, *, #255, .T. );
#184 = ORIENTED_EDGE( '', *, *, #256, .T. );
#185 = CARTESIAN_POINT( '', ( 0.000000000000000, 7.50000000000000, -14.4337567297406 ) );
#186 = DIRECTION( '', ( -0.499524110790929, -0.0436193873653360, -0.865201139495554 ) );
#187 = DIRECTION( '', ( -0.866025403784439, -2.42136240865198E-18, 0.500000000000000 ) );
#188 = SURFACE_STYLE_FILL_AREA( #257 );
#189 = ORIENTED_EDGE( '', *, *, #258, .F. );
#190 = ORIENTED_EDGE( '', *, *, #251, .F. );
#191 = ORIENTED_EDGE( '', *, *, #259, .T. );
#192 = ORIENTED_EDGE( '', *, *, #260, .T. );
#193 = CARTESIAN_POINT( '', ( 12.5000000000000, 7.50000000000000, 7.21687836487032 ) );
#194 = DIRECTION( '', ( 0.999048221581858, -0.0436193873653360, 0.000000000000000 ) );
#195 = DIRECTION( '', ( 0.0436193873653360, 0.999048221581858, 0.000000000000000 ) );
#196 = SURFACE_STYLE_FILL_AREA( #261 );
#197 = ORIENTED_EDGE( '', *, *, #262, .F. );
#198 = ORIENTED_EDGE( '', *, *, #247, .T. );
#199 = CARTESIAN_POINT( '', ( 0.000000000000000, 7.50000000000000, 0.000000000000000 ) );
#200 = DIRECTION( '', ( -0.000000000000000, 1.00000000000000, 0.000000000000000 ) );
#201 = DIRECTION( '', ( 0.000000000000000, 0.000000000000000, -1.00000000000000 ) );
#202 = SURFACE_STYLE_FILL_AREA( #263 );
#203 = ORIENTED_EDGE( '', *, *, #264, .F. );
#204 = ORIENTED_EDGE( '', *, *, #260, .F. );
#205 = ORIENTED_EDGE( '', *, *, #265, .T. );
#206 = ORIENTED_EDGE( '', *, *, #254, .T. );
#207 = CARTESIAN_POINT( '', ( 12.5000000000000, 7.50000000000000, -7.21687836487032 ) );
#208 = DIRECTION( '', ( 0.499524110790929, -0.0436193873653360, -0.865201139495554 ) );
#209 = DIRECTION( '', ( -0.866025403784439, 2.42136240865198E-18, -0.500000000000000 ) );
#210 = SURFACE_STYLE_FILL_AREA( #266 );
#211 = ORIENTED_EDGE( '', *, *, #267, .F. );
#212 = ORIENTED_EDGE( '', *, *, #256, .F. );
#213 = ORIENTED_EDGE( '', *, *, #268, .T. );
#214 = ORIENTED_EDGE( '', *, *, #243, .T. );
#215 = CARTESIAN_POINT( '', ( -12.5000000000000, 7.50000000000000, -7.21687836487032 ) );
#216 = DIRECTION( '', ( -0.999048221581858, -0.0436193873653360, 0.000000000000000 ) );
#217 = DIRECTION( '', ( 0.0436193873653360, -0.999048221581858, 0.000000000000000 ) );
#218 = SURFACE_STYLE_FILL_AREA( #269 );
#219 = ORIENTED_EDGE( '', *, *, #262, .T. );
#220 = ORIENTED_EDGE( '', *, *, #267, .T. );
#221 = ORIENTED_EDGE( '', *, *, #242, .T. );
#222 = ORIENTED_EDGE( '', *, *, #249, .T. );
#223 = ORIENTED_EDGE( '', *, *, #258, .T. );
#224 = ORIENTED_EDGE( '', *, *, #264, .T. );
#225 = ORIENTED_EDGE( '', *, *, #253, .T. );
#226 = CARTESIAN_POINT( '', ( 0.000000000000000, 7.50000000000000, 0.000000000000000 ) );
#227 = DIRECTION( '', ( 0.000000000000000, 1.00000000000000, 0.000000000000000 ) );
#228 = DIRECTION( '', ( 0.000000000000000, -0.000000000000000, 1.00000000000000 ) );
#229 = SURFACE_STYLE_FILL_AREA( #270 );
#230 = ORIENTED_EDGE( '', *, *, #268, .F. );
#231 = ORIENTED_EDGE( '', *, *, #255, .F. );
#232 = ORIENTED_EDGE( '', *, *, #265, .F. );
#233 = ORIENTED_EDGE( '', *, *, #259, .F. );
#234 = ORIENTED_EDGE( '', *, *, #250, .F. );
#235 = ORIENTED_EDGE( '', *, *, #244, .F. );
#236 = CARTESIAN_POINT( '', ( 0.000000000000000, 0.000000000000000, 0.000000000000000 ) );
#237 = DIRECTION( '', ( 0.000000000000000, 1.00000000000000, 0.000000000000000 ) );
#238 = DIRECTION( '', ( 0.000000000000000, -0.000000000000000, 1.00000000000000 ) );
#239 = FILL_AREA_STYLE( '', ( #271 ) );
#240 = EDGE_CURVE( '', #272, #272, #273, .T. );
#241 = FILL_AREA_STYLE( '', ( #274 ) );
#242 = EDGE_CURVE( '', #275, #276, #277, .T. );
#243 = EDGE_CURVE( '', #278, #275, #279, .T. );
#244 = EDGE_CURVE( '', #278, #280, #281, .T. );
#245 = EDGE_CURVE( '', #280, #276, #282, .T. );
#246 = FILL_AREA_STYLE( '', ( #283 ) );
#247 = EDGE_CURVE( '', #284, #284, #285, .T. );
#248 = FILL_AREA_STYLE( '', ( #286 ) );
#249 = EDGE_CURVE( '', #276, #287, #288, .T. );
#250 = EDGE_CURVE( '', #280, #289, #290, .T. );
#251 = EDGE_CURVE( '', #289, #287, #291, .T. );
#252 = FILL_AREA_STYLE( '', ( #292 ) );
#253 = EDGE_CURVE( '', #293, #294, #295, .T. );
#254 = EDGE_CURVE( '', #296, #293, #297, .T. );
#255 = EDGE_CURVE( '', #296, #298, #299, .T. );
#256 = EDGE_CURVE( '', #298, #294, #300, .T. );
#257 = FILL_AREA_STYLE( '', ( #301 ) );
#258 = EDGE_CURVE( '', #287, #302, #303, .T. );
#259 = EDGE_CURVE( '', #289, #304, #305, .T. );
#260 = EDGE_CURVE( '', #304, #302, #306, .T. );
#261 = FILL_AREA_STYLE( '', ( #307 ) );
#262 = EDGE_CURVE( '', #308, #308, #309, .T. );
#263 = FILL_AREA_STYLE( '', ( #310 ) );
#264 = EDGE_CURVE( '', #302, #293, #311, .T. );
#265 = EDGE_CURVE( '', #304, #296, #312, .T. );
#266 = FILL_AREA_STYLE( '', ( #313 ) );
#267 = EDGE_CURVE( '', #294, #275, #314, .T. );
#268 = EDGE_CURVE( '', #298, #278, #315, .T. );
#269 = FILL_AREA_STYLE( '', ( #316 ) );
#270 = FILL_AREA_STYLE( '', ( #317 ) );
#271 = FILL_AREA_STYLE_COLOUR( '', #318 );
#272 = VERTEX_POINT( '', #319 );
#273 = CIRCLE( '', #320, 2.38650000000000 );
#274 = FILL_AREA_STYLE_COLOUR( '', #321 );
#275 = VERTEX_POINT( '', #322 );
#276 = VERTEX_POINT( '', #323 );
#277 = LINE( '', #324, #325 );
#278 = VERTEX_POINT( '', #326 );
#279 = LINE( '', #327, #328 );
#280 = VERTEX_POINT( '', #329 );
#281 = LINE( '', #330, #331 );
#282 = LINE( '', #332, #333 );
#283 = FILL_AREA_STYLE_COLOUR( '', #334 );
#284 = VERTEX_POINT( '', #335 );
#285 = CIRCLE( '', #336, 3.00000000000000 );
#286 = FILL_AREA_STYLE_COLOUR( '', #337 );
#287 = VERTEX_POINT( '', #338 );
#288 = LINE( '', #339, #340 );
#289 = VERTEX_POINT( '', #341 );
#290 = LINE( '', #342, #343 );
#291 = LINE( '', #344, #345 );
#292 = FILL_AREA_STYLE_COLOUR( '', #346 );
#293 = VERTEX_POINT( '', #347 );
#294 = VERTEX_POINT( '', #348 );
#295 = LINE( '', #349, #350 );
#296 = VERTEX_POINT( '', #351 );
#297 = LINE( '', #352, #353 );
#298 = VERTEX_POINT( '', #354 );
#299 = LINE( '', #355, #356 );
#300 = LINE( '', #357, #358 );
#301 = FILL_AREA_STYLE_COLOUR( '', #359 );
#302 = VERTEX_POINT( '', #360 );
#303 = LINE( '', #361, #362 );
#304 = VERTEX_POINT( '', #363 );
#305 = LINE( '', #364, #365 );
#306 = LINE( '', #366, #367 );
#307 = FILL_AREA_STYLE_COLOUR( '', #368 );
#308 = VERTEX_POINT( '', #369 );
#309 = CIRCLE( '', #370, 3.00000000000000 );
#310 = FILL_AREA_STYLE_COLOUR( '', #371 );
#311 = LINE( '', #372, #373 );
#312 = LINE( '', #374, #375 );
#313 = FILL_AREA_STYLE_COLOUR( '', #376 );
#314 = LINE( '', #377, #378 );
#315 = LINE( '', #379, #380 );
#316 = FILL_AREA_STYLE_COLOUR( '', #381 );
#317 = FILL_AREA_STYLE_COLOUR( '', #382 );
#318 = COLOUR_RGB( '', 0.689999997600000, 0.689999997600000, 0.689999997600000 );
#319 = CARTESIAN_POINT( '', ( 0.000000000000000, 37.5000000000000, -2.38650000000000 ) );
#320 = AXIS2_PLACEMENT_3D( '', #383, #384, #385 );
#321 = COLOUR_RGB( '', 0.689999997600000, 0.689999997600000, 0.689999997600000 );
#322 = CARTESIAN_POINT( '', ( -12.5000000000000, 7.50000000000000, 7.21687836487032 ) );
#323 = CARTESIAN_POINT( '', ( 0.000000000000000, 7.50000000000000, 14.4337567297406 ) );
#324 = CARTESIAN_POINT( '', ( -12.5000000000000, 7.50000000000000, 7.21687836487032 ) );
#325 = VECTOR( '', #386, 1000.00000000000 );
#326 = CARTESIAN_POINT( '', ( -12.1725429281862, 0.000000000000000, 7.02782093631055 ) );
#327 = CARTESIAN_POINT( '', ( -12.4841546247884, 7.13708124112570, 7.20773003322647 ) );
#328 = VECTOR( '', #387, 1000.00000000000 );
#329 = CARTESIAN_POINT( '', ( 4.39010374806836E-16, 0.000000000000000, 14.0556418726211 ) );
#330 = CARTESIAN_POINT( '', ( -6.08627146409308, 0.000000000000000, 10.5417314044658 ) );
#331 = VECTOR( '', #388, 1000.00000000000 );
#332 = CARTESIAN_POINT( '', ( 0.000000000000000, 7.13708124112571, 14.4154600664529 ) );
#333 = VECTOR( '', #389, 1000.00000000000 );
#334 = COLOUR_RGB( '', 0.689999997600000, 0.689999997600000, 0.689999997600000 );
#335 = CARTESIAN_POINT( '', ( 0.000000000000000, 36.8865000000000, -3.00000000000000 ) );
#336 = AXIS2_PLACEMENT_3D( '', #390, #391, #392 );
#337 = COLOUR_RGB( '', 0.689999997600000, 0.689999997600000, 0.689999997600000 );
#338 = CARTESIAN_POINT( '', ( 12.5000000000000, 7.50000000000000, 7.21687836487032 ) );
#339 = CARTESIAN_POINT( '', ( 0.000000000000000, 7.50000000000000, 14.4337567297406 ) );
#340 = VECTOR( '', #393, 1000.00000000000 );
#341 = CARTESIAN_POINT( '', ( 12.1725429281862, 0.000000000000000, 7.02782093631055 ) );
#342 = CARTESIAN_POINT( '', ( 6.08627146409308, 0.000000000000000, 10.5417314044658 ) );
#343 = VECTOR( '', #394, 1000.00000000000 );
#344 = CARTESIAN_POINT( '', ( 12.4841546247884, 7.13708124112571, 7.20773003322647 ) );
#345 = VECTOR( '', #395, 1000.00000000000 );
#346 = COLOUR_RGB( '', 0.689999997600000, 0.689999997600000, 0.689999997600000 );
#347 = CARTESIAN_POINT( '', ( 0.000000000000000, 7.50000000000000, -14.4337567297406 ) );
#348 = CARTESIAN_POINT( '', ( -12.5000000000000, 7.50000000000000, -7.21687836487032 ) );
#349 = CARTESIAN_POINT( '', ( 0.000000000000000, 7.50000000000000, -14.4337567297406 ) );
#350 = VECTOR( '', #396, 1000.00000000000 );
#351 = CARTESIAN_POINT( '', ( -4.39010374806836E-16, 0.000000000000000, -14.0556418726211 ) );
#352 = CARTESIAN_POINT( '', ( 0.000000000000000, 7.13708124112571, -14.4154600664529 ) );
#353 = VECTOR( '', #397, 1000.00000000000 );
#354 = CARTESIAN_POINT( '', ( -12.1725429281862, 0.000000000000000, -7.02782093631055 ) );
#355 = CARTESIAN_POINT( '', ( -6.08627146409308, 0.000000000000000, -10.5417314044658 ) );
#356 = VECTOR( '', #398, 1000.00000000000 );
#357 = CARTESIAN_POINT( '', ( -12.4841546247884, 7.13708124112571, -7.20773003322647 ) );
#358 = VECTOR( '', #399, 1000.00000000000 );
#359 = COLOUR_RGB( '', 0.689999997600000, 0.689999997600000, 0.689999997600000 );
#360 = CARTESIAN_POINT( '', ( 12.5000000000000, 7.50000000000000, -7.21687836487032 ) );
#361 = CARTESIAN_POINT( '', ( 12.5000000000000, 7.50000000000000, 7.21687836487032 ) );
#362 = VECTOR( '', #400, 1000.00000000000 );
#363 = CARTESIAN_POINT( '', ( 12.1725429281862, 0.000000000000000, -7.02782093631055 ) );
#364 = CARTESIAN_POINT( '', ( 12.1725429281862, 0.000000000000000, 0.000000000000000 ) );
#365 = VECTOR( '', #401, 1000.00000000000 );
#366 = CARTESIAN_POINT( '', ( 12.4841546247884, 7.13708124112570, -7.20773003322647 ) );
#367 = VECTOR( '', #402, 1000.00000000000 );
#368 = COLOUR_RGB( '', 0.689999997600000, 0.689999997600000, 0.689999997600000 );
#369 = CARTESIAN_POINT( '', ( 0.000000000000000, 7.50000000000000, -3.00000000000000 ) );
#370 = AXIS2_PLACEMENT_3D( '', #403, #404, #405 );
#371 = COLOUR_RGB( '', 0.689999997600000, 0.689999997600000, 0.689999997600000 );
#372 = CARTESIAN_POINT( '', ( 12.5000000000000, 7.50000000000000, -7.21687836487032 ) );
#373 = VECTOR( '', #406, 1000.00000000000 );
#374 = CARTESIAN_POINT( '', ( 6.08627146409308, 0.000000000000000, -10.5417314044658 ) );
#375 = VECTOR( '', #407, 1000.00000000000 );
#376 = COLOUR_RGB( '', 0.689999997600000, 0.689999997600000, 0.689999997600000 );
#377 = CARTESIAN_POINT( '', ( -12.5000000000000, 7.50000000000000, -7.21687836487032 ) );
#378 = VECTOR( '', #408, 1000.00000000000 );
#379 = CARTESIAN_POINT( '', ( -12.1725429281862, 0.000000000000000, 0.000000000000000 ) );
#380 = VECTOR( '', #409, 1000.00000000000 );
#381 = COLOUR_RGB( '', 0.689999997600000, 0.689999997600000, 0.689999997600000 );
#382 = COLOUR_RGB( '', 0.689999997600000, 0.689999997600000, 0.689999997600000 );
#383 = CARTESIAN_POINT( '', ( 0.000000000000000, 37.5000000000000, 0.000000000000000 ) );
#384 = DIRECTION( '', ( 0.000000000000000, -1.00000000000000, -0.000000000000000 ) );
#385 = DIRECTION( '', ( 0.000000000000000, 0.000000000000000, -1.00000000000000 ) );
#386 = DIRECTION( '', ( 0.866025403784439, 0.000000000000000, 0.500000000000000 ) );
#387 = DIRECTION( '', ( -0.0436055618630999, 0.998731565520054, 0.0251756828798256 ) );
#388 = DIRECTION( '', ( 0.866025403784439, 0.000000000000000, 0.500000000000000 ) );
#389 = DIRECTION( '', ( 0.000000000000000, 0.998731565520054, 0.0503513657596513 ) );
#390 = CARTESIAN_POINT( '', ( 0.000000000000000, 36.8865000000000, 0.000000000000000 ) );
#391 = DIRECTION( '', ( 0.000000000000000, -1.00000000000000, -0.000000000000000 ) );
#392 = DIRECTION( '', ( 0.000000000000000, 0.000000000000000, -1.00000000000000 ) );
#393 = DIRECTION( '', ( 0.866025403784439, 0.000000000000000, -0.500000000000000 ) );
#394 = DIRECTION( '', ( 0.866025403784439, 0.000000000000000, -0.500000000000000 ) );
#395 = DIRECTION( '', ( 0.0436055618630999, 0.998731565520054, 0.0251756828798256 ) );
#396 = DIRECTION( '', ( -0.866025403784439, 0.000000000000000, 0.500000000000000 ) );
#397 = DIRECTION( '', ( 0.000000000000000, 0.998731565520054, -0.0503513657596513 ) );
#398 = DIRECTION( '', ( -0.866025403784439, 0.000000000000000, 0.500000000000000 ) );
#399 = DIRECTION( '', ( -0.0436055618630999, 0.998731565520054, -0.0251756828798256 ) );
#400 = DIRECTION( '', ( 0.000000000000000, 0.000000000000000, -1.00000000000000 ) );
#401 = DIRECTION( '', ( 0.000000000000000, 0.000000000000000, -1.00000000000000 ) );
#402 = DIRECTION( '', ( 0.0436055618630999, 0.998731565520054, -0.0251756828798256 ) );
#403 = CARTESIAN_POINT( '', ( 0.000000000000000, 7.50000000000000, 0.000000000000000 ) );
#404 = DIRECTION( '', ( 0.000000000000000, -1.00000000000000, -0.000000000000000 ) );
#405 = DIRECTION( '', ( 0.000000000000000, 0.000000000000000, -1.00000000000000 ) );
#406 = DIRECTION( '', ( -0.866025403784439, 0.000000000000000, -0.500000000000000 ) );
#407 = DIRECTION( '', ( -0.866025403784439, 0.000000000000000, -0.500000000000000 ) );
#408 = DIRECTION( '', ( 0.000000000000000, 0.000000000000000, 1.00000000000000 ) );
#409 = DIRECTION( '', ( 0.000000000000000, 0.000000000000000, 1.00000000000000 ) );
ENDSEC;
END-ISO-10303-21;
