ISO-10303-21;
HEADER;
FILE_DESCRIPTION( ( 'STEP AP214' ), '1' );
FILE_NAME( '//goodhand-server/Shared Folders/GoodHand Data/Kipp CAD/K0391/K0391.12X70.stp', '2020-12-07T10:17:44', ( '' ), ( '' ), ' ', 'PARTsolutions', ' ' );
FILE_SCHEMA( ( 'AUTOMOTIVE_DESIGN { 1 0 10303 214 1 1 1 1 }' ) );
ENDSEC;
DATA;
#1 = MECHANICAL_DESIGN_GEOMETRIC_PRESENTATION_REPRESENTATION( ' ', ( #10, #11, #12, #13, #14, #15, #16, #17, #18, #19, #20, #21, #22 ), #6 );
#2 = PRODUCT_DEFINITION_CONTEXT( '', #23, 'design' );
#3 = APPLICATION_PROTOCOL_DEFINITION( 'international standard', 'automotive_design', 2001, #23 );
#4 = PRODUCT_CATEGORY_RELATIONSHIP( 'NONE', 'NONE', #24, #25 );
#5 = SHAPE_DEFINITION_REPRESENTATION( #26, #27 );
#6 =  ( GEOMETRIC_REPRESENTATION_CONTEXT( 3 )GLOBAL_UNCERTAINTY_ASSIGNED_CONTEXT( ( #30 ) )GLOBAL_UNIT_ASSIGNED_CONTEXT( ( #32, #33, #34 ) )REPRESENTATION_CONTEXT( 'NONE', 'WORKSPACE' ) );
#10 = STYLED_ITEM( '', ( #36 ), #37 );
#11 = STYLED_ITEM( '', ( #38 ), #39 );
#12 = STYLED_ITEM( '', ( #40 ), #41 );
#13 = STYLED_ITEM( '', ( #42 ), #43 );
#14 = STYLED_ITEM( '', ( #44 ), #45 );
#15 = STYLED_ITEM( '', ( #46 ), #47 );
#16 = STYLED_ITEM( '', ( #48 ), #49 );
#17 = STYLED_ITEM( '', ( #50 ), #51 );
#18 = STYLED_ITEM( '', ( #52 ), #53 );
#19 = STYLED_ITEM( '', ( #54 ), #55 );
#20 = STYLED_ITEM( '', ( #56 ), #57 );
#21 = STYLED_ITEM( '', ( #58 ), #59 );
#22 = STYLED_ITEM( '', ( #60 ), #61 );
#23 = APPLICATION_CONTEXT( 'core data for automotive mechanical design processes' );
#24 = PRODUCT_CATEGORY( 'part', 'NONE' );
#25 = PRODUCT_RELATED_PRODUCT_CATEGORY( 'detail', ' ', ( #62 ) );
#26 = PRODUCT_DEFINITION_SHAPE( 'NONE', 'NONE', #63 );
#27 = ADVANCED_BREP_SHAPE_REPRESENTATION( '_K0391.12X70', ( #64, #65 ), #6 );
#30 = UNCERTAINTY_MEASURE_WITH_UNIT( LENGTH_MEASURE( 0.00100000000000000 ), #32, '', '' );
#32 =  ( CONVERSION_BASED_UNIT( 'MILLIMETRE', #68 )LENGTH_UNIT(  )NAMED_UNIT( #71 ) );
#33 =  ( NAMED_UNIT( #73 )PLANE_ANGLE_UNIT(  )SI_UNIT( $, .RADIAN. ) );
#34 =  ( NAMED_UNIT( #73 )SI_UNIT( $, .STERADIAN. )SOLID_ANGLE_UNIT(  ) );
#36 = PRESENTATION_STYLE_ASSIGNMENT( ( #79 ) );
#37 = ADVANCED_FACE( '', ( #80 ), #81, .T. );
#38 = PRESENTATION_STYLE_ASSIGNMENT( ( #82 ) );
#39 = ADVANCED_FACE( '', ( #83 ), #84, .T. );
#40 = PRESENTATION_STYLE_ASSIGNMENT( ( #85 ) );
#41 = ADVANCED_FACE( '', ( #86, #87 ), #88, .T. );
#42 = PRESENTATION_STYLE_ASSIGNMENT( ( #89 ) );
#43 = ADVANCED_FACE( '', ( #90, #91 ), #92, .T. );
#44 = PRESENTATION_STYLE_ASSIGNMENT( ( #93 ) );
#45 = ADVANCED_FACE( '', ( #94 ), #95, .T. );
#46 = PRESENTATION_STYLE_ASSIGNMENT( ( #96 ) );
#47 = ADVANCED_FACE( '', ( #97, #98 ), #99, .T. );
#48 = PRESENTATION_STYLE_ASSIGNMENT( ( #100 ) );
#49 = ADVANCED_FACE( '', ( #101 ), #102, .F. );
#50 = PRESENTATION_STYLE_ASSIGNMENT( ( #103 ) );
#51 = ADVANCED_FACE( '', ( #104, #105 ), #106, .T. );
#52 = PRESENTATION_STYLE_ASSIGNMENT( ( #107 ) );
#53 = ADVANCED_FACE( '', ( #108, #109 ), #110, .F. );
#54 = PRESENTATION_STYLE_ASSIGNMENT( ( #111 ) );
#55 = ADVANCED_FACE( '', ( #112 ), #113, .T. );
#56 = PRESENTATION_STYLE_ASSIGNMENT( ( #114 ) );
#57 = ADVANCED_FACE( '', ( #115, #116 ), #117, .T. );
#58 = PRESENTATION_STYLE_ASSIGNMENT( ( #118 ) );
#59 = ADVANCED_FACE( '', ( #119 ), #120, .T. );
#60 = PRESENTATION_STYLE_ASSIGNMENT( ( #121 ) );
#61 = ADVANCED_FACE( '', ( #122 ), #123, .T. );
#62 = PRODUCT( '_K0391.12X70', '_K0391.12X70', 'PART-_K0391.12X70-DESC', ( #124 ) );
#63 = PRODUCT_DEFINITION( 'NONE', 'NONE', #125, #2 );
#64 = MANIFOLD_SOLID_BREP( '_K0391.12X70', #126 );
#65 = AXIS2_PLACEMENT_3D( '', #127, #128, #129 );
#68 = LENGTH_MEASURE_WITH_UNIT( LENGTH_MEASURE( 1.00000000000000 ), #130 );
#71 = DIMENSIONAL_EXPONENTS( 1.00000000000000, 0.000000000000000, 0.000000000000000, 0.000000000000000, 0.000000000000000, 0.000000000000000, 0.000000000000000 );
#73 = DIMENSIONAL_EXPONENTS( 0.000000000000000, 0.000000000000000, 0.000000000000000, 0.000000000000000, 0.000000000000000, 0.000000000000000, 0.000000000000000 );
#79 = SURFACE_STYLE_USAGE( .BOTH., #131 );
#80 = FACE_OUTER_BOUND( '', #132, .T. );
#81 = PLANE( '', #133 );
#82 = SURFACE_STYLE_USAGE( .BOTH., #134 );
#83 = FACE_OUTER_BOUND( '', #135, .T. );
#84 = PLANE( '', #136 );
#85 = SURFACE_STYLE_USAGE( .BOTH., #137 );
#86 = FACE_OUTER_BOUND( '', #138, .T. );
#87 = FACE_BOUND( '', #139, .T. );
#88 = CONICAL_SURFACE( '', #140, 4.92650000000000, 0.785398163400000 );
#89 = SURFACE_STYLE_USAGE( .BOTH., #141 );
#90 = FACE_OUTER_BOUND( '', #142, .T. );
#91 = FACE_OUTER_BOUND( '', #143, .T. );
#92 = CYLINDRICAL_SURFACE( '', #144, 3.25000000000000 );
#93 = SURFACE_STYLE_USAGE( .BOTH., #145 );
#94 = FACE_OUTER_BOUND( '', #146, .T. );
#95 = PLANE( '', #147 );
#96 = SURFACE_STYLE_USAGE( .BOTH., #148 );
#97 = FACE_OUTER_BOUND( '', #149, .T. );
#98 = FACE_OUTER_BOUND( '', #150, .T. );
#99 = CYLINDRICAL_SURFACE( '', #151, 6.00000000000000 );
#100 = SURFACE_STYLE_USAGE( .BOTH., #152 );
#101 = FACE_OUTER_BOUND( '', #153, .T. );
#102 = PLANE( '', #154 );
#103 = SURFACE_STYLE_USAGE( .BOTH., #155 );
#104 = FACE_BOUND( '', #156, .T. );
#105 = FACE_OUTER_BOUND( '', #157, .T. );
#106 = CONICAL_SURFACE( '', #158, 6.00000000000000, 0.813428203400000 );
#107 = SURFACE_STYLE_USAGE( .BOTH., #159 );
#108 = FACE_OUTER_BOUND( '', #160, .T. );
#109 = FACE_BOUND( '', #161, .T. );
#110 = PLANE( '', #162 );
#111 = SURFACE_STYLE_USAGE( .BOTH., #163 );
#112 = FACE_OUTER_BOUND( '', #164, .T. );
#113 = PLANE( '', #165 );
#114 = SURFACE_STYLE_USAGE( .BOTH., #166 );
#115 = FACE_BOUND( '', #167, .T. );
#116 = FACE_OUTER_BOUND( '', #168, .T. );
#117 = SPHERICAL_SURFACE( '', #169, 4.00000000000000 );
#118 = SURFACE_STYLE_USAGE( .BOTH., #170 );
#119 = FACE_OUTER_BOUND( '', #171, .T. );
#120 = PLANE( '', #172 );
#121 = SURFACE_STYLE_USAGE( .BOTH., #173 );
#122 = FACE_OUTER_BOUND( '', #174, .T. );
#123 = PLANE( '', #175 );
#124 = PRODUCT_CONTEXT( '', #23, 'mechanical' );
#125 = PRODUCT_DEFINITION_FORMATION_WITH_SPECIFIED_SOURCE( ' ', 'NONE', #62, .NOT_KNOWN. );
#126 = CLOSED_SHELL( '', ( #41, #53, #61, #45, #39, #57, #43, #51, #47, #59, #55, #37, #49 ) );
#127 = CARTESIAN_POINT( '', ( 0.000000000000000, 0.000000000000000, 0.000000000000000 ) );
#128 = DIRECTION( '', ( 0.000000000000000, 0.000000000000000, 1.00000000000000 ) );
#129 = DIRECTION( '', ( 1.00000000000000, 0.000000000000000, 0.000000000000000 ) );
#130 =  ( LENGTH_UNIT(  )NAMED_UNIT( #71 )SI_UNIT( .MILLI., .METRE. ) );
#131 = SURFACE_SIDE_STYLE( '', ( #177 ) );
#132 = EDGE_LOOP( '', ( #178, #179, #180, #181 ) );
#133 = AXIS2_PLACEMENT_3D( '', #182, #183, #184 );
#134 = SURFACE_SIDE_STYLE( '', ( #185 ) );
#135 = EDGE_LOOP( '', ( #186, #187, #188, #189 ) );
#136 = AXIS2_PLACEMENT_3D( '', #190, #191, #192 );
#137 = SURFACE_SIDE_STYLE( '', ( #193 ) );
#138 = EDGE_LOOP( '', ( #194 ) );
#139 = EDGE_LOOP( '', ( #195 ) );
#140 = AXIS2_PLACEMENT_3D( '', #196, #197, #198 );
#141 = SURFACE_SIDE_STYLE( '', ( #199 ) );
#142 = EDGE_LOOP( '', ( #200 ) );
#143 = EDGE_LOOP( '', ( #201 ) );
#144 = AXIS2_PLACEMENT_3D( '', #202, #203, #204 );
#145 = SURFACE_SIDE_STYLE( '', ( #205 ) );
#146 = EDGE_LOOP( '', ( #206, #207, #208, #209 ) );
#147 = AXIS2_PLACEMENT_3D( '', #210, #211, #212 );
#148 = SURFACE_SIDE_STYLE( '', ( #213 ) );
#149 = EDGE_LOOP( '', ( #214 ) );
#150 = EDGE_LOOP( '', ( #215 ) );
#151 = AXIS2_PLACEMENT_3D( '', #216, #217, #218 );
#152 = SURFACE_SIDE_STYLE( '', ( #219 ) );
#153 = EDGE_LOOP( '', ( #220, #221, #222, #223, #224, #225 ) );
#154 = AXIS2_PLACEMENT_3D( '', #226, #227, #228 );
#155 = SURFACE_SIDE_STYLE( '', ( #229 ) );
#156 = EDGE_LOOP( '', ( #230 ) );
#157 = EDGE_LOOP( '', ( #231 ) );
#158 = AXIS2_PLACEMENT_3D( '', #232, #233, #234 );
#159 = SURFACE_SIDE_STYLE( '', ( #235 ) );
#160 = EDGE_LOOP( '', ( #236 ) );
#161 = EDGE_LOOP( '', ( #237, #238, #239, #240, #241, #242 ) );
#162 = AXIS2_PLACEMENT_3D( '', #243, #244, #245 );
#163 = SURFACE_SIDE_STYLE( '', ( #246 ) );
#164 = EDGE_LOOP( '', ( #247, #248, #249, #250 ) );
#165 = AXIS2_PLACEMENT_3D( '', #251, #252, #253 );
#166 = SURFACE_SIDE_STYLE( '', ( #254 ) );
#167 = VERTEX_LOOP( '', #255 );
#168 = EDGE_LOOP( '', ( #256 ) );
#169 = AXIS2_PLACEMENT_3D( '', #257, #258, #259 );
#170 = SURFACE_SIDE_STYLE( '', ( #260 ) );
#171 = EDGE_LOOP( '', ( #261, #262, #263, #264 ) );
#172 = AXIS2_PLACEMENT_3D( '', #265, #266, #267 );
#173 = SURFACE_SIDE_STYLE( '', ( #268 ) );
#174 = EDGE_LOOP( '', ( #269, #270, #271, #272 ) );
#175 = AXIS2_PLACEMENT_3D( '', #273, #274, #275 );
#177 = SURFACE_STYLE_FILL_AREA( #276 );
#178 = ORIENTED_EDGE( '', *, *, #277, .F. );
#179 = ORIENTED_EDGE( '', *, *, #278, .F. );
#180 = ORIENTED_EDGE( '', *, *, #279, .T. );
#181 = ORIENTED_EDGE( '', *, *, #280, .T. );
#182 = CARTESIAN_POINT( '', ( 6.00000000000000, 3.46410161513775, 0.000000000000000 ) );
#183 = DIRECTION( '', ( 0.000000000000000, -0.866025403784439, -0.500000000000000 ) );
#184 = DIRECTION( '', ( 0.000000000000000, 0.500000000000000, -0.866025403784439 ) );
#185 = SURFACE_STYLE_FILL_AREA( #281 );
#186 = ORIENTED_EDGE( '', *, *, #282, .F. );
#187 = ORIENTED_EDGE( '', *, *, #280, .F. );
#188 = ORIENTED_EDGE( '', *, *, #283, .T. );
#189 = ORIENTED_EDGE( '', *, *, #284, .T. );
#190 = CARTESIAN_POINT( '', ( 6.00000000000000, 1.73205080756888, 3.00000000000000 ) );
#191 = DIRECTION( '', ( 0.000000000000000, 0.000000000000000, -1.00000000000000 ) );
#192 = DIRECTION( '', ( -1.00000000000000, 0.000000000000000, 0.000000000000000 ) );
#193 = SURFACE_STYLE_FILL_AREA( #285 );
#194 = ORIENTED_EDGE( '', *, *, #286, .F. );
#195 = ORIENTED_EDGE( '', *, *, #287, .T. );
#196 = CARTESIAN_POINT( '', ( 0.000000000000000, 0.000000000000000, 0.000000000000000 ) );
#197 = DIRECTION( '', ( 1.00000000000000, -0.000000000000000, -0.000000000000000 ) );
#198 = DIRECTION( '', ( -0.000000000000000, 0.000000000000000, -1.00000000000000 ) );
#199 = SURFACE_STYLE_FILL_AREA( #288 );
#200 = ORIENTED_EDGE( '', *, *, #289, .F. );
#201 = ORIENTED_EDGE( '', *, *, #290, .T. );
#202 = CARTESIAN_POINT( '', ( 70.0000000000000, 0.000000000000000, 0.000000000000000 ) );
#203 = DIRECTION( '', ( -1.00000000000000, -0.000000000000000, 0.000000000000000 ) );
#204 = DIRECTION( '', ( -0.000000000000000, 0.000000000000000, -1.00000000000000 ) );
#205 = SURFACE_STYLE_FILL_AREA( #291 );
#206 = ORIENTED_EDGE( '', *, *, #292, .F. );
#207 = ORIENTED_EDGE( '', *, *, #293, .F. );
#208 = ORIENTED_EDGE( '', *, *, #294, .T. );
#209 = ORIENTED_EDGE( '', *, *, #295, .T. );
#210 = CARTESIAN_POINT( '', ( 6.00000000000000, -3.46410161513775, 0.000000000000000 ) );
#211 = DIRECTION( '', ( -0.000000000000000, 0.866025403784439, 0.500000000000000 ) );
#212 = DIRECTION( '', ( 0.000000000000000, -0.500000000000000, 0.866025403784439 ) );
#213 = SURFACE_STYLE_FILL_AREA( #296 );
#214 = ORIENTED_EDGE( '', *, *, #297, .F. );
#215 = ORIENTED_EDGE( '', *, *, #286, .T. );
#216 = CARTESIAN_POINT( '', ( 70.0000000000000, 0.000000000000000, 0.000000000000000 ) );
#217 = DIRECTION( '', ( -1.00000000000000, -0.000000000000000, 0.000000000000000 ) );
#218 = DIRECTION( '', ( -0.000000000000000, 0.000000000000000, -1.00000000000000 ) );
#219 = SURFACE_STYLE_FILL_AREA( #298 );
#220 = ORIENTED_EDGE( '', *, *, #283, .F. );
#221 = ORIENTED_EDGE( '', *, *, #279, .F. );
#222 = ORIENTED_EDGE( '', *, *, #299, .F. );
#223 = ORIENTED_EDGE( '', *, *, #300, .F. );
#224 = ORIENTED_EDGE( '', *, *, #294, .F. );
#225 = ORIENTED_EDGE( '', *, *, #301, .F. );
#226 = CARTESIAN_POINT( '', ( 6.00000000000000, 0.000000000000000, 0.000000000000000 ) );
#227 = DIRECTION( '', ( 1.00000000000000, 0.000000000000000, 0.000000000000000 ) );
#228 = DIRECTION( '', ( 0.000000000000000, 0.000000000000000, -1.00000000000000 ) );
#229 = SURFACE_STYLE_FILL_AREA( #302 );
#230 = ORIENTED_EDGE( '', *, *, #290, .F. );
#231 = ORIENTED_EDGE( '', *, *, #297, .T. );
#232 = CARTESIAN_POINT( '', ( 60.2000000000000, 0.000000000000000, 0.000000000000000 ) );
#233 = DIRECTION( '', ( -1.00000000000000, 0.000000000000000, -0.000000000000000 ) );
#234 = DIRECTION( '', ( 0.000000000000000, 0.000000000000000, 1.00000000000000 ) );
#235 = SURFACE_STYLE_FILL_AREA( #303 );
#236 = ORIENTED_EDGE( '', *, *, #287, .F. );
#237 = ORIENTED_EDGE( '', *, *, #282, .T. );
#238 = ORIENTED_EDGE( '', *, *, #304, .T. );
#239 = ORIENTED_EDGE( '', *, *, #292, .T. );
#240 = ORIENTED_EDGE( '', *, *, #305, .T. );
#241 = ORIENTED_EDGE( '', *, *, #306, .T. );
#242 = ORIENTED_EDGE( '', *, *, #277, .T. );
#243 = CARTESIAN_POINT( '', ( 0.000000000000000, 0.000000000000000, 0.000000000000000 ) );
#244 = DIRECTION( '', ( 1.00000000000000, 0.000000000000000, -0.000000000000000 ) );
#245 = DIRECTION( '', ( -0.000000000000000, 0.000000000000000, -1.00000000000000 ) );
#246 = SURFACE_STYLE_FILL_AREA( #307 );
#247 = ORIENTED_EDGE( '', *, *, #306, .F. );
#248 = ORIENTED_EDGE( '', *, *, #308, .F. );
#249 = ORIENTED_EDGE( '', *, *, #299, .T. );
#250 = ORIENTED_EDGE( '', *, *, #278, .T. );
#251 = CARTESIAN_POINT( '', ( 6.00000000000000, 1.73205080756888, -3.00000000000000 ) );
#252 = DIRECTION( '', ( 0.000000000000000, -0.866025403784439, 0.500000000000000 ) );
#253 = DIRECTION( '', ( 0.000000000000000, -0.500000000000000, -0.866025403784439 ) );
#254 = SURFACE_STYLE_FILL_AREA( #309 );
#255 = VERTEX_POINT( '', #310 );
#256 = ORIENTED_EDGE( '', *, *, #289, .T. );
#257 = CARTESIAN_POINT( '', ( 66.0000000000000, -2.03830008427275E-14, 0.000000000000000 ) );
#258 = DIRECTION( '', ( 1.00000000000000, 0.000000000000000, 0.000000000000000 ) );
#259 = DIRECTION( '', ( 0.000000000000000, 1.00000000000000, 0.000000000000000 ) );
#260 = SURFACE_STYLE_FILL_AREA( #311 );
#261 = ORIENTED_EDGE( '', *, *, #305, .F. );
#262 = ORIENTED_EDGE( '', *, *, #295, .F. );
#263 = ORIENTED_EDGE( '', *, *, #300, .T. );
#264 = ORIENTED_EDGE( '', *, *, #308, .T. );
#265 = CARTESIAN_POINT( '', ( 6.00000000000000, -1.73205080756888, -3.00000000000000 ) );
#266 = DIRECTION( '', ( 0.000000000000000, 0.000000000000000, 1.00000000000000 ) );
#267 = DIRECTION( '', ( 1.00000000000000, 0.000000000000000, -0.000000000000000 ) );
#268 = SURFACE_STYLE_FILL_AREA( #312 );
#269 = ORIENTED_EDGE( '', *, *, #304, .F. );
#270 = ORIENTED_EDGE( '', *, *, #284, .F. );
#271 = ORIENTED_EDGE( '', *, *, #301, .T. );
#272 = ORIENTED_EDGE( '', *, *, #293, .T. );
#273 = CARTESIAN_POINT( '', ( 6.00000000000000, -1.73205080756888, 3.00000000000000 ) );
#274 = DIRECTION( '', ( 0.000000000000000, 0.866025403784439, -0.500000000000000 ) );
#275 = DIRECTION( '', ( 0.000000000000000, 0.500000000000000, 0.866025403784439 ) );
#276 = FILL_AREA_STYLE( '', ( #313 ) );
#277 = EDGE_CURVE( '', #314, #315, #316, .T. );
#278 = EDGE_CURVE( '', #317, #314, #318, .T. );
#279 = EDGE_CURVE( '', #317, #319, #320, .T. );
#280 = EDGE_CURVE( '', #319, #315, #321, .T. );
#281 = FILL_AREA_STYLE( '', ( #322 ) );
#282 = EDGE_CURVE( '', #315, #323, #324, .T. );
#283 = EDGE_CURVE( '', #319, #325, #326, .T. );
#284 = EDGE_CURVE( '', #325, #323, #327, .T. );
#285 = FILL_AREA_STYLE( '', ( #328 ) );
#286 = EDGE_CURVE( '', #329, #329, #330, .T. );
#287 = EDGE_CURVE( '', #331, #331, #332, .T. );
#288 = FILL_AREA_STYLE( '', ( #333 ) );
#289 = EDGE_CURVE( '', #334, #334, #335, .T. );
#290 = EDGE_CURVE( '', #336, #336, #337, .T. );
#291 = FILL_AREA_STYLE( '', ( #338 ) );
#292 = EDGE_CURVE( '', #339, #340, #341, .T. );
#293 = EDGE_CURVE( '', #342, #339, #343, .T. );
#294 = EDGE_CURVE( '', #342, #344, #345, .T. );
#295 = EDGE_CURVE( '', #344, #340, #346, .T. );
#296 = FILL_AREA_STYLE( '', ( #347 ) );
#297 = EDGE_CURVE( '', #348, #348, #349, .T. );
#298 = FILL_AREA_STYLE( '', ( #350 ) );
#299 = EDGE_CURVE( '', #351, #317, #352, .T. );
#300 = EDGE_CURVE( '', #344, #351, #353, .T. );
#301 = EDGE_CURVE( '', #325, #342, #354, .T. );
#302 = FILL_AREA_STYLE( '', ( #355 ) );
#303 = FILL_AREA_STYLE( '', ( #356 ) );
#304 = EDGE_CURVE( '', #323, #339, #357, .T. );
#305 = EDGE_CURVE( '', #340, #358, #359, .T. );
#306 = EDGE_CURVE( '', #358, #314, #360, .T. );
#307 = FILL_AREA_STYLE( '', ( #361 ) );
#308 = EDGE_CURVE( '', #351, #358, #362, .T. );
#309 = FILL_AREA_STYLE( '', ( #363 ) );
#310 = CARTESIAN_POINT( '', ( 70.0000000000000, -2.01380714828980E-14, 0.000000000000000 ) );
#311 = FILL_AREA_STYLE( '', ( #364 ) );
#312 = FILL_AREA_STYLE( '', ( #365 ) );
#313 = FILL_AREA_STYLE_COLOUR( '', #366 );
#314 = VERTEX_POINT( '', #367 );
#315 = VERTEX_POINT( '', #368 );
#316 = LINE( '', #369, #370 );
#317 = VERTEX_POINT( '', #371 );
#318 = LINE( '', #372, #373 );
#319 = VERTEX_POINT( '', #374 );
#320 = LINE( '', #375, #376 );
#321 = LINE( '', #377, #378 );
#322 = FILL_AREA_STYLE_COLOUR( '', #379 );
#323 = VERTEX_POINT( '', #380 );
#324 = LINE( '', #381, #382 );
#325 = VERTEX_POINT( '', #383 );
#326 = LINE( '', #384, #385 );
#327 = LINE( '', #386, #387 );
#328 = FILL_AREA_STYLE_COLOUR( '', #388 );
#329 = VERTEX_POINT( '', #389 );
#330 = CIRCLE( '', #390, 6.00000000000000 );
#331 = VERTEX_POINT( '', #391 );
#332 = CIRCLE( '', #392, 4.92650000000000 );
#333 = FILL_AREA_STYLE_COLOUR( '', #393 );
#334 = VERTEX_POINT( '', #394 );
#335 = CIRCLE( '', #395, 3.25000000000000 );
#336 = VERTEX_POINT( '', #396 );
#337 = CIRCLE( '', #397, 3.25000000000000 );
#338 = FILL_AREA_STYLE_COLOUR( '', #398 );
#339 = VERTEX_POINT( '', #399 );
#340 = VERTEX_POINT( '', #400 );
#341 = LINE( '', #401, #402 );
#342 = VERTEX_POINT( '', #403 );
#343 = LINE( '', #404, #405 );
#344 = VERTEX_POINT( '', #406 );
#345 = LINE( '', #407, #408 );
#346 = LINE( '', #409, #410 );
#347 = FILL_AREA_STYLE_COLOUR( '', #411 );
#348 = VERTEX_POINT( '', #412 );
#349 = CIRCLE( '', #413, 6.00000000000000 );
#350 = FILL_AREA_STYLE_COLOUR( '', #414 );
#351 = VERTEX_POINT( '', #415 );
#352 = LINE( '', #416, #417 );
#353 = LINE( '', #418, #419 );
#354 = LINE( '', #420, #421 );
#355 = FILL_AREA_STYLE_COLOUR( '', #422 );
#356 = FILL_AREA_STYLE_COLOUR( '', #423 );
#357 = LINE( '', #424, #425 );
#358 = VERTEX_POINT( '', #426 );
#359 = LINE( '', #427, #428 );
#360 = LINE( '', #429, #430 );
#361 = FILL_AREA_STYLE_COLOUR( '', #431 );
#362 = LINE( '', #432, #433 );
#363 = FILL_AREA_STYLE_COLOUR( '', #434 );
#364 = FILL_AREA_STYLE_COLOUR( '', #435 );
#365 = FILL_AREA_STYLE_COLOUR( '', #436 );
#366 = COLOUR_RGB( '', 0.689999997600000, 0.689999997600000, 0.689999997600000 );
#367 = CARTESIAN_POINT( '', ( 0.000000000000000, 3.46410161513775, 0.000000000000000 ) );
#368 = CARTESIAN_POINT( '', ( 0.000000000000000, 1.73205080756888, 3.00000000000000 ) );
#369 = CARTESIAN_POINT( '', ( 0.000000000000000, 3.46410161513775, 0.000000000000000 ) );
#370 = VECTOR( '', #437, 1000.00000000000 );
#371 = CARTESIAN_POINT( '', ( 6.00000000000000, 3.46410161513775, 0.000000000000000 ) );
#372 = CARTESIAN_POINT( '', ( 6.00000000000000, 3.46410161513775, 0.000000000000000 ) );
#373 = VECTOR( '', #438, 1000.00000000000 );
#374 = CARTESIAN_POINT( '', ( 6.00000000000000, 1.73205080756888, 3.00000000000000 ) );
#375 = CARTESIAN_POINT( '', ( 6.00000000000000, 3.46410161513775, 0.000000000000000 ) );
#376 = VECTOR( '', #439, 1000.00000000000 );
#377 = CARTESIAN_POINT( '', ( 6.00000000000000, 1.73205080756888, 3.00000000000000 ) );
#378 = VECTOR( '', #440, 1000.00000000000 );
#379 = COLOUR_RGB( '', 0.689999997600000, 0.689999997600000, 0.689999997600000 );
#380 = CARTESIAN_POINT( '', ( 0.000000000000000, -1.73205080756888, 3.00000000000000 ) );
#381 = CARTESIAN_POINT( '', ( 0.000000000000000, 1.73205080756888, 3.00000000000000 ) );
#382 = VECTOR( '', #441, 1000.00000000000 );
#383 = CARTESIAN_POINT( '', ( 6.00000000000000, -1.73205080756888, 3.00000000000000 ) );
#384 = CARTESIAN_POINT( '', ( 6.00000000000000, 1.73205080756888, 3.00000000000000 ) );
#385 = VECTOR( '', #442, 1000.00000000000 );
#386 = CARTESIAN_POINT( '', ( 6.00000000000000, -1.73205080756888, 3.00000000000000 ) );
#387 = VECTOR( '', #443, 1000.00000000000 );
#388 = COLOUR_RGB( '', 0.689999997600000, 0.689999997600000, 0.689999997600000 );
#389 = CARTESIAN_POINT( '', ( 1.07350000000001, 0.000000000000000, -6.00000000000001 ) );
#390 = AXIS2_PLACEMENT_3D( '', #444, #445, #446 );
#391 = CARTESIAN_POINT( '', ( 0.000000000000000, 0.000000000000000, -4.92650000000000 ) );
#392 = AXIS2_PLACEMENT_3D( '', #447, #448, #449 );
#393 = COLOUR_RGB( '', 0.689999997600000, 0.689999997600000, 0.689999997600000 );
#394 = CARTESIAN_POINT( '', ( 63.6681552367278, 0.000000000000000, -3.25000000000000 ) );
#395 = AXIS2_PLACEMENT_3D( '', #450, #451, #452 );
#396 = CARTESIAN_POINT( '', ( 62.8000000000000, 0.000000000000000, -3.25000000000000 ) );
#397 = AXIS2_PLACEMENT_3D( '', #453, #454, #455 );
#398 = COLOUR_RGB( '', 0.689999997600000, 0.689999997600000, 0.689999997600000 );
#399 = CARTESIAN_POINT( '', ( 0.000000000000000, -3.46410161513775, 0.000000000000000 ) );
#400 = CARTESIAN_POINT( '', ( 0.000000000000000, -1.73205080756888, -3.00000000000000 ) );
#401 = CARTESIAN_POINT( '', ( 0.000000000000000, -3.46410161513775, 0.000000000000000 ) );
#402 = VECTOR( '', #456, 1000.00000000000 );
#403 = CARTESIAN_POINT( '', ( 6.00000000000000, -3.46410161513775, 0.000000000000000 ) );
#404 = CARTESIAN_POINT( '', ( 6.00000000000000, -3.46410161513775, 0.000000000000000 ) );
#405 = VECTOR( '', #457, 1000.00000000000 );
#406 = CARTESIAN_POINT( '', ( 6.00000000000000, -1.73205080756888, -3.00000000000000 ) );
#407 = CARTESIAN_POINT( '', ( 6.00000000000000, -3.46410161513775, 0.000000000000000 ) );
#408 = VECTOR( '', #458, 1000.00000000000 );
#409 = CARTESIAN_POINT( '', ( 6.00000000000000, -1.73205080756888, -3.00000000000000 ) );
#410 = VECTOR( '', #459, 1000.00000000000 );
#411 = COLOUR_RGB( '', 0.689999997600000, 0.689999997600000, 0.689999997600000 );
#412 = CARTESIAN_POINT( '', ( 60.2000000000000, 0.000000000000000, -6.00000000000001 ) );
#413 = AXIS2_PLACEMENT_3D( '', #460, #461, #462 );
#414 = COLOUR_RGB( '', 0.689999997600000, 0.689999997600000, 0.689999997600000 );
#415 = CARTESIAN_POINT( '', ( 6.00000000000000, 1.73205080756888, -3.00000000000000 ) );
#416 = CARTESIAN_POINT( '', ( 6.00000000000000, 1.73205080756888, -3.00000000000000 ) );
#417 = VECTOR( '', #463, 1000.00000000000 );
#418 = CARTESIAN_POINT( '', ( 6.00000000000000, -1.73205080756888, -3.00000000000000 ) );
#419 = VECTOR( '', #464, 1000.00000000000 );
#420 = CARTESIAN_POINT( '', ( 6.00000000000000, -1.73205080756888, 3.00000000000000 ) );
#421 = VECTOR( '', #465, 1000.00000000000 );
#422 = COLOUR_RGB( '', 0.689999997600000, 0.689999997600000, 0.689999997600000 );
#423 = COLOUR_RGB( '', 0.689999997600000, 0.689999997600000, 0.689999997600000 );
#424 = CARTESIAN_POINT( '', ( 0.000000000000000, -1.73205080756888, 3.00000000000000 ) );
#425 = VECTOR( '', #466, 1000.00000000000 );
#426 = CARTESIAN_POINT( '', ( 0.000000000000000, 1.73205080756888, -3.00000000000000 ) );
#427 = CARTESIAN_POINT( '', ( 0.000000000000000, -1.73205080756888, -3.00000000000000 ) );
#428 = VECTOR( '', #467, 1000.00000000000 );
#429 = CARTESIAN_POINT( '', ( 0.000000000000000, 1.73205080756888, -3.00000000000000 ) );
#430 = VECTOR( '', #468, 1000.00000000000 );
#431 = COLOUR_RGB( '', 0.689999997600000, 0.689999997600000, 0.689999997600000 );
#432 = CARTESIAN_POINT( '', ( 6.00000000000000, 1.73205080756888, -3.00000000000000 ) );
#433 = VECTOR( '', #469, 1000.00000000000 );
#434 = COLOUR_RGB( '', 0.689999997600000, 0.689999997600000, 0.689999997600000 );
#435 = COLOUR_RGB( '', 0.689999997600000, 0.689999997600000, 0.689999997600000 );
#436 = COLOUR_RGB( '', 0.689999997600000, 0.689999997600000, 0.689999997600000 );
#437 = DIRECTION( '', ( 0.000000000000000, -0.500000000000000, 0.866025403784439 ) );
#438 = DIRECTION( '', ( -1.00000000000000, -0.000000000000000, -0.000000000000000 ) );
#439 = DIRECTION( '', ( 0.000000000000000, -0.500000000000000, 0.866025403784439 ) );
#440 = DIRECTION( '', ( -1.00000000000000, -0.000000000000000, -0.000000000000000 ) );
#441 = DIRECTION( '', ( 0.000000000000000, -1.00000000000000, 0.000000000000000 ) );
#442 = DIRECTION( '', ( 0.000000000000000, -1.00000000000000, 0.000000000000000 ) );
#443 = DIRECTION( '', ( -1.00000000000000, -0.000000000000000, -0.000000000000000 ) );
#444 = CARTESIAN_POINT( '', ( 1.07350000000001, 0.000000000000000, 0.000000000000000 ) );
#445 = DIRECTION( '', ( 1.00000000000000, 0.000000000000000, -0.000000000000000 ) );
#446 = DIRECTION( '', ( -0.000000000000000, 0.000000000000000, -1.00000000000000 ) );
#447 = CARTESIAN_POINT( '', ( 0.000000000000000, 0.000000000000000, 0.000000000000000 ) );
#448 = DIRECTION( '', ( 1.00000000000000, 0.000000000000000, -0.000000000000000 ) );
#449 = DIRECTION( '', ( -0.000000000000000, 0.000000000000000, -1.00000000000000 ) );
#450 = CARTESIAN_POINT( '', ( 63.6681552367278, 0.000000000000000, 0.000000000000000 ) );
#451 = DIRECTION( '', ( 1.00000000000000, 0.000000000000000, -0.000000000000000 ) );
#452 = DIRECTION( '', ( -0.000000000000000, 0.000000000000000, -1.00000000000000 ) );
#453 = CARTESIAN_POINT( '', ( 62.8000000000000, 0.000000000000000, 0.000000000000000 ) );
#454 = DIRECTION( '', ( 1.00000000000000, 0.000000000000000, -0.000000000000000 ) );
#455 = DIRECTION( '', ( -0.000000000000000, 0.000000000000000, -1.00000000000000 ) );
#456 = DIRECTION( '', ( 0.000000000000000, 0.500000000000000, -0.866025403784439 ) );
#457 = DIRECTION( '', ( -1.00000000000000, -0.000000000000000, -0.000000000000000 ) );
#458 = DIRECTION( '', ( 0.000000000000000, 0.500000000000000, -0.866025403784439 ) );
#459 = DIRECTION( '', ( -1.00000000000000, -0.000000000000000, -0.000000000000000 ) );
#460 = CARTESIAN_POINT( '', ( 60.2000000000000, 0.000000000000000, 0.000000000000000 ) );
#461 = DIRECTION( '', ( 1.00000000000000, 0.000000000000000, -0.000000000000000 ) );
#462 = DIRECTION( '', ( -0.000000000000000, 0.000000000000000, -1.00000000000000 ) );
#463 = DIRECTION( '', ( 0.000000000000000, 0.500000000000000, 0.866025403784439 ) );
#464 = DIRECTION( '', ( 0.000000000000000, 1.00000000000000, 0.000000000000000 ) );
#465 = DIRECTION( '', ( 0.000000000000000, -0.500000000000000, -0.866025403784439 ) );
#466 = DIRECTION( '', ( 0.000000000000000, -0.500000000000000, -0.866025403784439 ) );
#467 = DIRECTION( '', ( 0.000000000000000, 1.00000000000000, 0.000000000000000 ) );
#468 = DIRECTION( '', ( 0.000000000000000, 0.500000000000000, 0.866025403784439 ) );
#469 = DIRECTION( '', ( -1.00000000000000, -0.000000000000000, -0.000000000000000 ) );
ENDSEC;
END-ISO-10303-21;
