ISO-10303-21;
HEADER;
FILE_DESCRIPTION( ( 'STEP AP214' ), '1' );
FILE_NAME( '//goodhand-server/Shared Folders/GoodHand Data/Kipp CAD/K0390/K0390.12X80.stp', '2020-12-07T10:14:43', ( '' ), ( '' ), ' ', 'PARTsolutions', ' ' );
FILE_SCHEMA( ( 'AUTOMOTIVE_DESIGN { 1 0 10303 214 1 1 1 1 }' ) );
ENDSEC;
DATA;
#1 = MECHANICAL_DESIGN_GEOMETRIC_PRESENTATION_REPRESENTATION( ' ', ( #10, #11, #12, #13, #14, #15, #16, #17, #18, #19, #20, #21, #22 ), #6 );
#2 = PRODUCT_DEFINITION_CONTEXT( '', #23, 'design' );
#3 = APPLICATION_PROTOCOL_DEFINITION( 'international standard', 'automotive_design', 2001, #23 );
#4 = PRODUCT_CATEGORY_RELATIONSHIP( 'NONE', 'NONE', #24, #25 );
#5 = SHAPE_DEFINITION_REPRESENTATION( #26, #27 );
#6 =  ( GEOMETRIC_REPRESENTATION_CONTEXT( 3 )GLOBAL_UNCERTAINTY_ASSIGNED_CONTEXT( ( #30 ) )GLOBAL_UNIT_ASSIGNED_CONTEXT( ( #32, #33, #34 ) )REPRESENTATION_CONTEXT( 'NONE', 'WORKSPACE' ) );
#10 = STYLED_ITEM( '', ( #36 ), #37 );
#11 = STYLED_ITEM( '', ( #38 ), #39 );
#12 = STYLED_ITEM( '', ( #40 ), #41 );
#13 = STYLED_ITEM( '', ( #42 ), #43 );
#14 = STYLED_ITEM( '', ( #44 ), #45 );
#15 = STYLED_ITEM( '', ( #46 ), #47 );
#16 = STYLED_ITEM( '', ( #48 ), #49 );
#17 = STYLED_ITEM( '', ( #50 ), #51 );
#18 = STYLED_ITEM( '', ( #52 ), #53 );
#19 = STYLED_ITEM( '', ( #54 ), #55 );
#20 = STYLED_ITEM( '', ( #56 ), #57 );
#21 = STYLED_ITEM( '', ( #58 ), #59 );
#22 = STYLED_ITEM( '', ( #60 ), #61 );
#23 = APPLICATION_CONTEXT( 'core data for automotive mechanical design processes' );
#24 = PRODUCT_CATEGORY( 'part', 'NONE' );
#25 = PRODUCT_RELATED_PRODUCT_CATEGORY( 'detail', ' ', ( #62 ) );
#26 = PRODUCT_DEFINITION_SHAPE( 'NONE', 'NONE', #63 );
#27 = ADVANCED_BREP_SHAPE_REPRESENTATION( '_K0390.12X80', ( #64, #65 ), #6 );
#30 = UNCERTAINTY_MEASURE_WITH_UNIT( LENGTH_MEASURE( 0.00100000000000000 ), #32, '', '' );
#32 =  ( CONVERSION_BASED_UNIT( 'MILLIMETRE', #68 )LENGTH_UNIT(  )NAMED_UNIT( #71 ) );
#33 =  ( NAMED_UNIT( #73 )PLANE_ANGLE_UNIT(  )SI_UNIT( $, .RADIAN. ) );
#34 =  ( NAMED_UNIT( #73 )SI_UNIT( $, .STERADIAN. )SOLID_ANGLE_UNIT(  ) );
#36 = PRESENTATION_STYLE_ASSIGNMENT( ( #79 ) );
#37 = ADVANCED_FACE( '', ( #80 ), #81, .T. );
#38 = PRESENTATION_STYLE_ASSIGNMENT( ( #82 ) );
#39 = ADVANCED_FACE( '', ( #83, #84 ), #85, .T. );
#40 = PRESENTATION_STYLE_ASSIGNMENT( ( #86 ) );
#41 = ADVANCED_FACE( '', ( #87 ), #88, .F. );
#42 = PRESENTATION_STYLE_ASSIGNMENT( ( #89 ) );
#43 = ADVANCED_FACE( '', ( #90 ), #91, .T. );
#44 = PRESENTATION_STYLE_ASSIGNMENT( ( #92 ) );
#45 = ADVANCED_FACE( '', ( #93, #94 ), #95, .T. );
#46 = PRESENTATION_STYLE_ASSIGNMENT( ( #96 ) );
#47 = ADVANCED_FACE( '', ( #97 ), #98, .T. );
#48 = PRESENTATION_STYLE_ASSIGNMENT( ( #99 ) );
#49 = ADVANCED_FACE( '', ( #100 ), #101, .F. );
#50 = PRESENTATION_STYLE_ASSIGNMENT( ( #102 ) );
#51 = ADVANCED_FACE( '', ( #103, #104 ), #105, .T. );
#52 = PRESENTATION_STYLE_ASSIGNMENT( ( #106 ) );
#53 = ADVANCED_FACE( '', ( #107, #108 ), #109, .T. );
#54 = PRESENTATION_STYLE_ASSIGNMENT( ( #110 ) );
#55 = ADVANCED_FACE( '', ( #111 ), #112, .F. );
#56 = PRESENTATION_STYLE_ASSIGNMENT( ( #113 ) );
#57 = ADVANCED_FACE( '', ( #114, #115 ), #116, .T. );
#58 = PRESENTATION_STYLE_ASSIGNMENT( ( #117 ) );
#59 = ADVANCED_FACE( '', ( #118 ), #119, .F. );
#60 = PRESENTATION_STYLE_ASSIGNMENT( ( #120 ) );
#61 = ADVANCED_FACE( '', ( #121, #122 ), #123, .F. );
#62 = PRODUCT( '_K0390.12X80', '_K0390.12X80', 'PART-_K0390.12X80-DESC', ( #124 ) );
#63 = PRODUCT_DEFINITION( 'NONE', 'NONE', #125, #2 );
#64 = MANIFOLD_SOLID_BREP( '_K0390.12X80', #126 );
#65 = AXIS2_PLACEMENT_3D( '', #127, #128, #129 );
#68 = LENGTH_MEASURE_WITH_UNIT( LENGTH_MEASURE( 1.00000000000000 ), #130 );
#71 = DIMENSIONAL_EXPONENTS( 1.00000000000000, 0.000000000000000, 0.000000000000000, 0.000000000000000, 0.000000000000000, 0.000000000000000, 0.000000000000000 );
#73 = DIMENSIONAL_EXPONENTS( 0.000000000000000, 0.000000000000000, 0.000000000000000, 0.000000000000000, 0.000000000000000, 0.000000000000000, 0.000000000000000 );
#79 = SURFACE_STYLE_USAGE( .BOTH., #131 );
#80 = FACE_OUTER_BOUND( '', #132, .T. );
#81 = CONICAL_SURFACE( '', #133, 4.92650000000000, 0.785398163400000 );
#82 = SURFACE_STYLE_USAGE( .BOTH., #134 );
#83 = FACE_OUTER_BOUND( '', #135, .T. );
#84 = FACE_OUTER_BOUND( '', #136, .T. );
#85 = CYLINDRICAL_SURFACE( '', #137, 6.00000000000000 );
#86 = SURFACE_STYLE_USAGE( .BOTH., #138 );
#87 = FACE_OUTER_BOUND( '', #139, .T. );
#88 = PLANE( '', #140 );
#89 = SURFACE_STYLE_USAGE( .BOTH., #141 );
#90 = FACE_OUTER_BOUND( '', #142, .T. );
#91 = PLANE( '', #143 );
#92 = SURFACE_STYLE_USAGE( .BOTH., #144 );
#93 = FACE_OUTER_BOUND( '', #145, .T. );
#94 = FACE_OUTER_BOUND( '', #146, .T. );
#95 = CYLINDRICAL_SURFACE( '', #147, 4.00000000000000 );
#96 = SURFACE_STYLE_USAGE( .BOTH., #148 );
#97 = FACE_OUTER_BOUND( '', #149, .T. );
#98 = CONICAL_SURFACE( '', #150, 4.92650000000000, 0.785398163400000 );
#99 = SURFACE_STYLE_USAGE( .BOTH., #151 );
#100 = FACE_OUTER_BOUND( '', #152, .T. );
#101 = PLANE( '', #153 );
#102 = SURFACE_STYLE_USAGE( .BOTH., #154 );
#103 = FACE_OUTER_BOUND( '', #155, .T. );
#104 = FACE_OUTER_BOUND( '', #156, .T. );
#105 = CYLINDRICAL_SURFACE( '', #157, 3.60000000000000 );
#106 = SURFACE_STYLE_USAGE( .BOTH., #158 );
#107 = FACE_BOUND( '', #159, .T. );
#108 = FACE_OUTER_BOUND( '', #160, .T. );
#109 = CONICAL_SURFACE( '', #161, 6.00000000000000, 1.18946407340000 );
#110 = SURFACE_STYLE_USAGE( .BOTH., #162 );
#111 = FACE_OUTER_BOUND( '', #163, .T. );
#112 = PLANE( '', #164 );
#113 = SURFACE_STYLE_USAGE( .BOTH., #165 );
#114 = FACE_BOUND( '', #166, .T. );
#115 = FACE_OUTER_BOUND( '', #167, .T. );
#116 = SPHERICAL_SURFACE( '', #168, 6.70960000000000 );
#117 = SURFACE_STYLE_USAGE( .BOTH., #169 );
#118 = FACE_OUTER_BOUND( '', #170, .T. );
#119 = PLANE( '', #171 );
#120 = SURFACE_STYLE_USAGE( .BOTH., #172 );
#121 = FACE_OUTER_BOUND( '', #173, .T. );
#122 = FACE_BOUND( '', #174, .T. );
#123 = PLANE( '', #175 );
#124 = PRODUCT_CONTEXT( '', #23, 'mechanical' );
#125 = PRODUCT_DEFINITION_FORMATION_WITH_SPECIFIED_SOURCE( ' ', 'NONE', #62, .NOT_KNOWN. );
#126 = CLOSED_SHELL( '', ( #59, #55, #57, #45, #61, #51, #53, #39, #37, #49, #47, #41, #43 ) );
#127 = CARTESIAN_POINT( '', ( 0.000000000000000, 0.000000000000000, 0.000000000000000 ) );
#128 = DIRECTION( '', ( 0.000000000000000, 0.000000000000000, 1.00000000000000 ) );
#129 = DIRECTION( '', ( 1.00000000000000, 0.000000000000000, 0.000000000000000 ) );
#130 =  ( LENGTH_UNIT(  )NAMED_UNIT( #71 )SI_UNIT( .MILLI., .METRE. ) );
#131 = SURFACE_SIDE_STYLE( '', ( #177 ) );
#132 = EDGE_LOOP( '', ( #178, #179, #180, #181 ) );
#133 = AXIS2_PLACEMENT_3D( '', #182, #183, #184 );
#134 = SURFACE_SIDE_STYLE( '', ( #185 ) );
#135 = EDGE_LOOP( '', ( #186 ) );
#136 = EDGE_LOOP( '', ( #187, #188, #189, #190, #191, #192, #193, #194 ) );
#137 = AXIS2_PLACEMENT_3D( '', #195, #196, #197 );
#138 = SURFACE_SIDE_STYLE( '', ( #198 ) );
#139 = EDGE_LOOP( '', ( #199, #200 ) );
#140 = AXIS2_PLACEMENT_3D( '', #201, #202, #203 );
#141 = SURFACE_SIDE_STYLE( '', ( #204 ) );
#142 = EDGE_LOOP( '', ( #205, #206, #207, #208 ) );
#143 = AXIS2_PLACEMENT_3D( '', #209, #210, #211 );
#144 = SURFACE_SIDE_STYLE( '', ( #212 ) );
#145 = EDGE_LOOP( '', ( #213 ) );
#146 = EDGE_LOOP( '', ( #214 ) );
#147 = AXIS2_PLACEMENT_3D( '', #215, #216, #217 );
#148 = SURFACE_SIDE_STYLE( '', ( #218 ) );
#149 = EDGE_LOOP( '', ( #219, #220, #221, #222 ) );
#150 = AXIS2_PLACEMENT_3D( '', #223, #224, #225 );
#151 = SURFACE_SIDE_STYLE( '', ( #226 ) );
#152 = EDGE_LOOP( '', ( #227, #228 ) );
#153 = AXIS2_PLACEMENT_3D( '', #229, #230, #231 );
#154 = SURFACE_SIDE_STYLE( '', ( #232 ) );
#155 = EDGE_LOOP( '', ( #233 ) );
#156 = EDGE_LOOP( '', ( #234 ) );
#157 = AXIS2_PLACEMENT_3D( '', #235, #236, #237 );
#158 = SURFACE_SIDE_STYLE( '', ( #238 ) );
#159 = EDGE_LOOP( '', ( #239 ) );
#160 = EDGE_LOOP( '', ( #240 ) );
#161 = AXIS2_PLACEMENT_3D( '', #241, #242, #243 );
#162 = SURFACE_SIDE_STYLE( '', ( #244 ) );
#163 = EDGE_LOOP( '', ( #245, #246, #247, #248, #249, #250 ) );
#164 = AXIS2_PLACEMENT_3D( '', #251, #252, #253 );
#165 = SURFACE_SIDE_STYLE( '', ( #254 ) );
#166 = VERTEX_LOOP( '', #255 );
#167 = EDGE_LOOP( '', ( #256 ) );
#168 = AXIS2_PLACEMENT_3D( '', #257, #258, #259 );
#169 = SURFACE_SIDE_STYLE( '', ( #260 ) );
#170 = EDGE_LOOP( '', ( #261, #262, #263, #264, #265, #266 ) );
#171 = AXIS2_PLACEMENT_3D( '', #267, #268, #269 );
#172 = SURFACE_SIDE_STYLE( '', ( #270 ) );
#173 = EDGE_LOOP( '', ( #271 ) );
#174 = EDGE_LOOP( '', ( #272 ) );
#175 = AXIS2_PLACEMENT_3D( '', #273, #274, #275 );
#177 = SURFACE_STYLE_FILL_AREA( #276 );
#178 = ORIENTED_EDGE( '', *, *, #277, .T. );
#179 = ORIENTED_EDGE( '', *, *, #278, .T. );
#180 = ORIENTED_EDGE( '', *, *, #279, .F. );
#181 = ORIENTED_EDGE( '', *, *, #280, .T. );
#182 = CARTESIAN_POINT( '', ( 0.000000000000000, -4.30483321611339E-16, 0.000000000000000 ) );
#183 = DIRECTION( '', ( 1.00000000000000, -6.12323399573676E-17, -0.000000000000000 ) );
#184 = DIRECTION( '', ( 6.12323399573677E-17, 1.00000000000000, 0.000000000000000 ) );
#185 = SURFACE_STYLE_FILL_AREA( #281 );
#186 = ORIENTED_EDGE( '', *, *, #282, .F. );
#187 = ORIENTED_EDGE( '', *, *, #283, .T. );
#188 = ORIENTED_EDGE( '', *, *, #284, .T. );
#189 = ORIENTED_EDGE( '', *, *, #285, .F. );
#190 = ORIENTED_EDGE( '', *, *, #286, .T. );
#191 = ORIENTED_EDGE( '', *, *, #279, .T. );
#192 = ORIENTED_EDGE( '', *, *, #287, .T. );
#193 = ORIENTED_EDGE( '', *, *, #288, .F. );
#194 = ORIENTED_EDGE( '', *, *, #289, .T. );
#195 = CARTESIAN_POINT( '', ( 80.0000000000000, -5.32907051820075E-15, 0.000000000000000 ) );
#196 = DIRECTION( '', ( -1.00000000000000, 6.12323399573677E-17, 0.000000000000000 ) );
#197 = DIRECTION( '', ( 6.12323399573677E-17, 1.00000000000000, 0.000000000000000 ) );
#198 = SURFACE_STYLE_FILL_AREA( #290 );
#199 = ORIENTED_EDGE( '', *, *, #277, .F. );
#200 = ORIENTED_EDGE( '', *, *, #291, .F. );
#201 = CARTESIAN_POINT( '', ( -1.50830561399986E-16, -4.30483321611338E-16, 0.000000000000000 ) );
#202 = DIRECTION( '', ( 1.00000000000000, -6.12323399573677E-17, -0.000000000000000 ) );
#203 = DIRECTION( '', ( 6.12323399573677E-17, 1.00000000000000, 0.000000000000000 ) );
#204 = SURFACE_STYLE_FILL_AREA( #292 );
#205 = ORIENTED_EDGE( '', *, *, #285, .T. );
#206 = ORIENTED_EDGE( '', *, *, #293, .T. );
#207 = ORIENTED_EDGE( '', *, *, #288, .T. );
#208 = ORIENTED_EDGE( '', *, *, #294, .T. );
#209 = CARTESIAN_POINT( '', ( 3.00000000000000, 0.000000000000000, 0.000000000000000 ) );
#210 = DIRECTION( '', ( -1.00000000000000, 0.000000000000000, 0.000000000000000 ) );
#211 = DIRECTION( '', ( 0.000000000000000, 0.000000000000000, 1.00000000000000 ) );
#212 = SURFACE_STYLE_FILL_AREA( #295 );
#213 = ORIENTED_EDGE( '', *, *, #296, .F. );
#214 = ORIENTED_EDGE( '', *, *, #297, .T. );
#215 = CARTESIAN_POINT( '', ( 80.0000000000000, -5.32907051820075E-15, 0.000000000000000 ) );
#216 = DIRECTION( '', ( -1.00000000000000, 6.12323399573677E-17, 0.000000000000000 ) );
#217 = DIRECTION( '', ( 6.12323399573677E-17, 1.00000000000000, 0.000000000000000 ) );
#218 = SURFACE_STYLE_FILL_AREA( #298 );
#219 = ORIENTED_EDGE( '', *, *, #283, .F. );
#220 = ORIENTED_EDGE( '', *, *, #299, .T. );
#221 = ORIENTED_EDGE( '', *, *, #300, .T. );
#222 = ORIENTED_EDGE( '', *, *, #301, .T. );
#223 = CARTESIAN_POINT( '', ( 0.000000000000000, -4.30483321611339E-16, 0.000000000000000 ) );
#224 = DIRECTION( '', ( 1.00000000000000, -6.12323399573676E-17, -0.000000000000000 ) );
#225 = DIRECTION( '', ( 6.12323399573677E-17, 1.00000000000000, 0.000000000000000 ) );
#226 = SURFACE_STYLE_FILL_AREA( #302 );
#227 = ORIENTED_EDGE( '', *, *, #300, .F. );
#228 = ORIENTED_EDGE( '', *, *, #303, .F. );
#229 = CARTESIAN_POINT( '', ( -1.50830561399986E-16, -4.30483321611338E-16, 0.000000000000000 ) );
#230 = DIRECTION( '', ( 1.00000000000000, -6.12323399573677E-17, -0.000000000000000 ) );
#231 = DIRECTION( '', ( 6.12323399573677E-17, 1.00000000000000, 0.000000000000000 ) );
#232 = SURFACE_STYLE_FILL_AREA( #304 );
#233 = ORIENTED_EDGE( '', *, *, #305, .F. );
#234 = ORIENTED_EDGE( '', *, *, #306, .T. );
#235 = CARTESIAN_POINT( '', ( 80.0000000000000, -5.32907051820075E-15, 0.000000000000000 ) );
#236 = DIRECTION( '', ( -1.00000000000000, 6.12323399573676E-17, 0.000000000000000 ) );
#237 = DIRECTION( '', ( 6.12323399573676E-17, 1.00000000000000, 0.000000000000000 ) );
#238 = SURFACE_STYLE_FILL_AREA( #307 );
#239 = ORIENTED_EDGE( '', *, *, #306, .F. );
#240 = ORIENTED_EDGE( '', *, *, #282, .T. );
#241 = CARTESIAN_POINT( '', ( 70.0000000000000, -4.71674711862708E-15, 0.000000000000000 ) );
#242 = DIRECTION( '', ( -1.00000000000000, 6.12323399573677E-17, -0.000000000000000 ) );
#243 = DIRECTION( '', ( -6.12323399573677E-17, -1.00000000000000, 0.000000000000000 ) );
#244 = SURFACE_STYLE_FILL_AREA( #308 );
#245 = ORIENTED_EDGE( '', *, *, #303, .T. );
#246 = ORIENTED_EDGE( '', *, *, #299, .F. );
#247 = ORIENTED_EDGE( '', *, *, #289, .F. );
#248 = ORIENTED_EDGE( '', *, *, #293, .F. );
#249 = ORIENTED_EDGE( '', *, *, #284, .F. );
#250 = ORIENTED_EDGE( '', *, *, #301, .F. );
#251 = CARTESIAN_POINT( '', ( 3.00000000000000, -0.900000000000000, -10.5000000000000 ) );
#252 = DIRECTION( '', ( 0.000000000000000, -1.00000000000000, 0.000000000000000 ) );
#253 = DIRECTION( '', ( 0.000000000000000, 0.000000000000000, -1.00000000000000 ) );
#254 = SURFACE_STYLE_FILL_AREA( #309 );
#255 = VERTEX_POINT( '', #310 );
#256 = ORIENTED_EDGE( '', *, *, #296, .T. );
#257 = CARTESIAN_POINT( '', ( 73.2904000000001, 3.33934269125535E-14, 0.000000000000000 ) );
#258 = DIRECTION( '', ( 1.00000000000000, 0.000000000000000, 0.000000000000000 ) );
#259 = DIRECTION( '', ( 0.000000000000000, -1.00000000000000, 0.000000000000000 ) );
#260 = SURFACE_STYLE_FILL_AREA( #311 );
#261 = ORIENTED_EDGE( '', *, *, #278, .F. );
#262 = ORIENTED_EDGE( '', *, *, #291, .T. );
#263 = ORIENTED_EDGE( '', *, *, #280, .F. );
#264 = ORIENTED_EDGE( '', *, *, #286, .F. );
#265 = ORIENTED_EDGE( '', *, *, #294, .F. );
#266 = ORIENTED_EDGE( '', *, *, #287, .F. );
#267 = CARTESIAN_POINT( '', ( 3.00000000000000, 0.900000000000000, 10.5000000000000 ) );
#268 = DIRECTION( '', ( 0.000000000000000, 1.00000000000000, 0.000000000000000 ) );
#269 = DIRECTION( '', ( 0.000000000000000, -0.000000000000000, 1.00000000000000 ) );
#270 = SURFACE_STYLE_FILL_AREA( #312 );
#271 = ORIENTED_EDGE( '', *, *, #297, .F. );
#272 = ORIENTED_EDGE( '', *, *, #305, .T. );
#273 = CARTESIAN_POINT( '', ( 75.5000000000000, 3.60000000000000, 0.000000000000000 ) );
#274 = DIRECTION( '', ( 1.00000000000000, -6.12323399573677E-17, -0.000000000000000 ) );
#275 = DIRECTION( '', ( 6.12323399573677E-17, 1.00000000000000, 0.000000000000000 ) );
#276 = FILL_AREA_STYLE( '', ( #313 ) );
#277 = EDGE_CURVE( '', #314, #315, #316, .T. );
#278 = EDGE_CURVE( '', #315, #317, #318, .T. );
#279 = EDGE_CURVE( '', #319, #317, #320, .T. );
#280 = EDGE_CURVE( '', #319, #314, #321, .T. );
#281 = FILL_AREA_STYLE( '', ( #322 ) );
#282 = EDGE_CURVE( '', #323, #323, #324, .T. );
#283 = EDGE_CURVE( '', #325, #326, #327, .T. );
#284 = EDGE_CURVE( '', #326, #328, #329, .T. );
#285 = EDGE_CURVE( '', #330, #328, #331, .T. );
#286 = EDGE_CURVE( '', #330, #319, #332, .F. );
#287 = EDGE_CURVE( '', #317, #333, #334, .T. );
#288 = EDGE_CURVE( '', #335, #333, #336, .T. );
#289 = EDGE_CURVE( '', #335, #325, #337, .F. );
#290 = FILL_AREA_STYLE( '', ( #338 ) );
#291 = EDGE_CURVE( '', #315, #314, #339, .T. );
#292 = FILL_AREA_STYLE( '', ( #340 ) );
#293 = EDGE_CURVE( '', #328, #335, #341, .T. );
#294 = EDGE_CURVE( '', #333, #330, #342, .T. );
#295 = FILL_AREA_STYLE( '', ( #343 ) );
#296 = EDGE_CURVE( '', #344, #344, #345, .T. );
#297 = EDGE_CURVE( '', #346, #346, #347, .T. );
#298 = FILL_AREA_STYLE( '', ( #348 ) );
#299 = EDGE_CURVE( '', #325, #349, #350, .T. );
#300 = EDGE_CURVE( '', #349, #351, #352, .T. );
#301 = EDGE_CURVE( '', #351, #326, #353, .T. );
#302 = FILL_AREA_STYLE( '', ( #354 ) );
#303 = EDGE_CURVE( '', #351, #349, #355, .T. );
#304 = FILL_AREA_STYLE( '', ( #356 ) );
#305 = EDGE_CURVE( '', #357, #357, #358, .T. );
#306 = EDGE_CURVE( '', #359, #359, #360, .T. );
#307 = FILL_AREA_STYLE( '', ( #361 ) );
#308 = FILL_AREA_STYLE( '', ( #362 ) );
#309 = FILL_AREA_STYLE( '', ( #363 ) );
#310 = CARTESIAN_POINT( '', ( 80.0000000000000, 3.25717378961976E-14, 0.000000000000000 ) );
#311 = FILL_AREA_STYLE( '', ( #364 ) );
#312 = FILL_AREA_STYLE( '', ( #365 ) );
#313 = FILL_AREA_STYLE_COLOUR( '', #366 );
#314 = VERTEX_POINT( '', #367 );
#315 = VERTEX_POINT( '', #368 );
#316 = CIRCLE( '', #369, 4.92650000000000 );
#317 = VERTEX_POINT( '', #370 );
#318 = B_SPLINE_CURVE_WITH_KNOTS( '', 3, ( #371, #372, #373, #374 ), .UNSPECIFIED., .F., .F., ( 4, 4 ), ( 0.0245656796122453, 0.0261075036220749 ), .UNSPECIFIED. );
#319 = VERTEX_POINT( '', #375 );
#320 = CIRCLE( '', #376, 6.00000000000000 );
#321 = B_SPLINE_CURVE_WITH_KNOTS( '', 3, ( #377, #378, #379, #380 ), .UNSPECIFIED., .F., .F., ( 4, 4 ), ( 0.0102495533465439, 0.0117783706769766 ), .UNSPECIFIED. );
#322 = FILL_AREA_STYLE_COLOUR( '', #381 );
#323 = VERTEX_POINT( '', #382 );
#324 = CIRCLE( '', #383, 6.00000000000000 );
#325 = VERTEX_POINT( '', #384 );
#326 = VERTEX_POINT( '', #385 );
#327 = CIRCLE( '', #386, 6.00000000000000 );
#328 = VERTEX_POINT( '', #387 );
#329 = LINE( '', #388, #389 );
#330 = VERTEX_POINT( '', #390 );
#331 = CIRCLE( '', #391, 6.00000000000000 );
#332 = LINE( '', #392, #393 );
#333 = VERTEX_POINT( '', #394 );
#334 = LINE( '', #395, #396 );
#335 = VERTEX_POINT( '', #397 );
#336 = CIRCLE( '', #398, 6.00000000000000 );
#337 = LINE( '', #399, #400 );
#338 = FILL_AREA_STYLE_COLOUR( '', #401 );
#339 = LINE( '', #402, #403 );
#340 = FILL_AREA_STYLE_COLOUR( '', #404 );
#341 = LINE( '', #405, #406 );
#342 = LINE( '', #407, #408 );
#343 = FILL_AREA_STYLE_COLOUR( '', #409 );
#344 = VERTEX_POINT( '', #410 );
#345 = CIRCLE( '', #411, 4.00000000000000 );
#346 = VERTEX_POINT( '', #412 );
#347 = CIRCLE( '', #413, 4.00000000000000 );
#348 = FILL_AREA_STYLE_COLOUR( '', #414 );
#349 = VERTEX_POINT( '', #415 );
#350 = B_SPLINE_CURVE_WITH_KNOTS( '', 3, ( #416, #417, #418, #419 ), .UNSPECIFIED., .F., .F., ( 4, 4 ), ( 0.0102495533465439, 0.0117783706769766 ), .UNSPECIFIED. );
#351 = VERTEX_POINT( '', #420 );
#352 = CIRCLE( '', #421, 4.92650000000000 );
#353 = B_SPLINE_CURVE_WITH_KNOTS( '', 3, ( #422, #423, #424, #425 ), .UNSPECIFIED., .F., .F., ( 4, 4 ), ( 0.0245656796122453, 0.0261075036220749 ), .UNSPECIFIED. );
#354 = FILL_AREA_STYLE_COLOUR( '', #426 );
#355 = LINE( '', #427, #428 );
#356 = FILL_AREA_STYLE_COLOUR( '', #429 );
#357 = VERTEX_POINT( '', #430 );
#358 = CIRCLE( '', #431, 3.60000000000000 );
#359 = VERTEX_POINT( '', #432 );
#360 = CIRCLE( '', #433, 3.60000000000000 );
#361 = FILL_AREA_STYLE_COLOUR( '', #434 );
#362 = FILL_AREA_STYLE_COLOUR( '', #435 );
#363 = FILL_AREA_STYLE_COLOUR( '', #436 );
#364 = FILL_AREA_STYLE_COLOUR( '', #437 );
#365 = FILL_AREA_STYLE_COLOUR( '', #438 );
#366 = COLOUR_RGB( '', 0.689999997600000, 0.689999997600000, 0.689999997600000 );
#367 = CARTESIAN_POINT( '', ( 0.000000000000000, 0.899999999999999, -4.84359393942143 ) );
#368 = CARTESIAN_POINT( '', ( 0.000000000000000, 0.899999999999999, 4.84359393942143 ) );
#369 = AXIS2_PLACEMENT_3D( '', #439, #440, #441 );
#370 = CARTESIAN_POINT( '', ( 1.07350000000001, 0.900000000000005, 5.93211597998556 ) );
#371 = CARTESIAN_POINT( '', ( 2.73614557451046E-16, 0.900000000000000, 4.84359393942143 ) );
#372 = CARTESIAN_POINT( '', ( 0.357276898579811, 0.900000000000000, 5.20698621855697 ) );
#373 = CARTESIAN_POINT( '', ( 0.715211048721682, 0.900000000000000, 5.56972695810484 ) );
#374 = CARTESIAN_POINT( '', ( 1.07350000000000, 0.900000000000000, 5.93211597998556 ) );
#375 = CARTESIAN_POINT( '', ( 1.07350000000001, 0.900000000000005, -5.93211597998556 ) );
#376 = AXIS2_PLACEMENT_3D( '', #442, #443, #444 );
#377 = CARTESIAN_POINT( '', ( 1.07350000000000, 0.900000000000000, -5.93211597998556 ) );
#378 = CARTESIAN_POINT( '', ( 0.715209951210059, 0.900000000000000, -5.56972584803387 ) );
#379 = CARTESIAN_POINT( '', ( 0.357275562011623, 0.900000000000000, -5.20698485911122 ) );
#380 = CARTESIAN_POINT( '', ( -3.04959246213380E-15, 0.900000000000000, -4.84359393942143 ) );
#381 = COLOUR_RGB( '', 0.689999997600000, 0.689999997600000, 0.689999997600000 );
#382 = CARTESIAN_POINT( '', ( 70.0000000000000, 6.00000000000000, 0.000000000000000 ) );
#383 = AXIS2_PLACEMENT_3D( '', #445, #446, #447 );
#384 = CARTESIAN_POINT( '', ( 1.07350000000001, -0.899999999999996, 5.93211597998556 ) );
#385 = CARTESIAN_POINT( '', ( 1.07350000000001, -0.899999999999996, -5.93211597998556 ) );
#386 = AXIS2_PLACEMENT_3D( '', #448, #449, #450 );
#387 = CARTESIAN_POINT( '', ( 3.00000000000000, -0.900000000000000, -5.93211597998556 ) );
#388 = CARTESIAN_POINT( '', ( 80.0000000000000, -0.900000000000000, -5.93211597998556 ) );
#389 = VECTOR( '', #451, 1000.00000000000 );
#390 = CARTESIAN_POINT( '', ( 3.00000000000000, 0.899999999999999, -5.93211597998556 ) );
#391 = AXIS2_PLACEMENT_3D( '', #452, #453, #454 );
#392 = CARTESIAN_POINT( '', ( 80.0000000000000, 0.900000000000000, -5.93211597998556 ) );
#393 = VECTOR( '', #455, 1000.00000000000 );
#394 = CARTESIAN_POINT( '', ( 3.00000000000000, 0.899999999999999, 5.93211597998556 ) );
#395 = CARTESIAN_POINT( '', ( 80.0000000000000, 0.900000000000000, 5.93211597998556 ) );
#396 = VECTOR( '', #456, 1000.00000000000 );
#397 = CARTESIAN_POINT( '', ( 3.00000000000000, -0.900000000000000, 5.93211597998556 ) );
#398 = AXIS2_PLACEMENT_3D( '', #457, #458, #459 );
#399 = CARTESIAN_POINT( '', ( 80.0000000000000, -0.900000000000000, 5.93211597998556 ) );
#400 = VECTOR( '', #460, 1000.00000000000 );
#401 = COLOUR_RGB( '', 0.689999997600000, 0.689999997600000, 0.689999997600000 );
#402 = CARTESIAN_POINT( '', ( 0.000000000000000, 0.900000000000000, 10.5000000000000 ) );
#403 = VECTOR( '', #461, 1000.00000000000 );
#404 = COLOUR_RGB( '', 0.689999997600000, 0.689999997600000, 0.689999997600000 );
#405 = CARTESIAN_POINT( '', ( 3.00000000000000, -0.900000000000000, -10.5000000000000 ) );
#406 = VECTOR( '', #462, 1000.00000000000 );
#407 = CARTESIAN_POINT( '', ( 3.00000000000000, 0.900000000000000, 10.5000000000000 ) );
#408 = VECTOR( '', #463, 1000.00000000000 );
#409 = COLOUR_RGB( '', 0.689999997600000, 0.689999997600000, 0.689999997600000 );
#410 = CARTESIAN_POINT( '', ( 78.6773037637589, 3.99999999999999, 0.000000000000000 ) );
#411 = AXIS2_PLACEMENT_3D( '', #464, #465, #466 );
#412 = CARTESIAN_POINT( '', ( 75.5000000000000, 3.99999999999999, 0.000000000000000 ) );
#413 = AXIS2_PLACEMENT_3D( '', #467, #468, #469 );
#414 = COLOUR_RGB( '', 0.689999997600000, 0.689999997600000, 0.689999997600000 );
#415 = CARTESIAN_POINT( '', ( 0.000000000000000, -0.900000000000000, 4.84359393942143 ) );
#416 = CARTESIAN_POINT( '', ( 1.07350000000000, -0.900000000000000, 5.93211597998556 ) );
#417 = CARTESIAN_POINT( '', ( 0.715209951210059, -0.900000000000000, 5.56972584803387 ) );
#418 = CARTESIAN_POINT( '', ( 0.357275562011623, -0.900000000000000, 5.20698485911122 ) );
#419 = CARTESIAN_POINT( '', ( -3.10654305026396E-15, -0.900000000000000, 4.84359393942143 ) );
#420 = CARTESIAN_POINT( '', ( 0.000000000000000, -0.900000000000000, -4.84359393942143 ) );
#421 = AXIS2_PLACEMENT_3D( '', #470, #471, #472 );
#422 = CARTESIAN_POINT( '', ( 5.27453010064145E-18, -0.900000000000000, -4.84359393942143 ) );
#423 = CARTESIAN_POINT( '', ( 0.357276898579810, -0.900000000000000, -5.20698621855697 ) );
#424 = CARTESIAN_POINT( '', ( 0.715211048721682, -0.900000000000000, -5.56972695810484 ) );
#425 = CARTESIAN_POINT( '', ( 1.07350000000000, -0.900000000000000, -5.93211597998556 ) );
#426 = COLOUR_RGB( '', 0.689999997600000, 0.689999997600000, 0.689999997600000 );
#427 = CARTESIAN_POINT( '', ( 0.000000000000000, -0.900000000000000, -10.5000000000000 ) );
#428 = VECTOR( '', #473, 1000.00000000000 );
#429 = COLOUR_RGB( '', 0.689999997600000, 0.689999997600000, 0.689999997600000 );
#430 = CARTESIAN_POINT( '', ( 75.5000000000000, 3.59999999999999, 0.000000000000000 ) );
#431 = AXIS2_PLACEMENT_3D( '', #474, #475, #476 );
#432 = CARTESIAN_POINT( '', ( 70.9623000000000, 3.59999999999999, 0.000000000000000 ) );
#433 = AXIS2_PLACEMENT_3D( '', #477, #478, #479 );
#434 = COLOUR_RGB( '', 0.689999997600000, 0.689999997600000, 0.689999997600000 );
#435 = COLOUR_RGB( '', 0.689999997600000, 0.689999997600000, 0.689999997600000 );
#436 = COLOUR_RGB( '', 0.689999997600000, 0.689999997600000, 0.689999997600000 );
#437 = COLOUR_RGB( '', 0.689999997600000, 0.689999997600000, 0.689999997600000 );
#438 = COLOUR_RGB( '', 0.689999997600000, 0.689999997600000, 0.689999997600000 );
#439 = CARTESIAN_POINT( '', ( 0.000000000000000, -4.30483321611339E-16, 0.000000000000000 ) );
#440 = DIRECTION( '', ( 1.00000000000000, -6.12323399573676E-17, -0.000000000000000 ) );
#441 = DIRECTION( '', ( 6.12323399573677E-17, 1.00000000000000, 0.000000000000000 ) );
#442 = CARTESIAN_POINT( '', ( 1.07350000000001, -4.96216238555573E-16, 0.000000000000000 ) );
#443 = DIRECTION( '', ( 1.00000000000000, -6.12323399573677E-17, -0.000000000000000 ) );
#444 = DIRECTION( '', ( 6.12323399573677E-17, 1.00000000000000, 0.000000000000000 ) );
#445 = CARTESIAN_POINT( '', ( 70.0000000000000, -4.71674711862708E-15, 0.000000000000000 ) );
#446 = DIRECTION( '', ( 1.00000000000000, -6.12323399573677E-17, -0.000000000000000 ) );
#447 = DIRECTION( '', ( 6.12323399573677E-17, 1.00000000000000, 0.000000000000000 ) );
#448 = CARTESIAN_POINT( '', ( 1.07350000000001, -4.96216238555573E-16, 0.000000000000000 ) );
#449 = DIRECTION( '', ( 1.00000000000000, -6.12323399573677E-17, -0.000000000000000 ) );
#450 = DIRECTION( '', ( 6.12323399573677E-17, 1.00000000000000, 0.000000000000000 ) );
#451 = DIRECTION( '', ( 1.00000000000000, -6.12323399573677E-17, -0.000000000000000 ) );
#452 = CARTESIAN_POINT( '', ( 3.00000000000000, -6.14180341483442E-16, 0.000000000000000 ) );
#453 = DIRECTION( '', ( -1.00000000000000, 0.000000000000000, 0.000000000000000 ) );
#454 = DIRECTION( '', ( 0.000000000000000, 0.000000000000000, 1.00000000000000 ) );
#455 = DIRECTION( '', ( 1.00000000000000, -6.12323399573677E-17, -0.000000000000000 ) );
#456 = DIRECTION( '', ( 1.00000000000000, -6.12323399573677E-17, -0.000000000000000 ) );
#457 = CARTESIAN_POINT( '', ( 3.00000000000000, -6.14180341483442E-16, 0.000000000000000 ) );
#458 = DIRECTION( '', ( -1.00000000000000, 0.000000000000000, 0.000000000000000 ) );
#459 = DIRECTION( '', ( 0.000000000000000, 0.000000000000000, 1.00000000000000 ) );
#460 = DIRECTION( '', ( 1.00000000000000, -6.12323399573677E-17, -0.000000000000000 ) );
#461 = DIRECTION( '', ( 0.000000000000000, 0.000000000000000, -1.00000000000000 ) );
#462 = DIRECTION( '', ( 0.000000000000000, 0.000000000000000, 1.00000000000000 ) );
#463 = DIRECTION( '', ( 0.000000000000000, 0.000000000000000, -1.00000000000000 ) );
#464 = CARTESIAN_POINT( '', ( 78.6773037637589, -5.24807873260291E-15, 0.000000000000000 ) );
#465 = DIRECTION( '', ( 1.00000000000000, -6.12323399573677E-17, -0.000000000000000 ) );
#466 = DIRECTION( '', ( 6.12323399573677E-17, 1.00000000000000, 0.000000000000000 ) );
#467 = CARTESIAN_POINT( '', ( 75.5000000000000, -5.05352498839260E-15, 0.000000000000000 ) );
#468 = DIRECTION( '', ( 1.00000000000000, -6.12323399573677E-17, -0.000000000000000 ) );
#469 = DIRECTION( '', ( 6.12323399573677E-17, 1.00000000000000, 0.000000000000000 ) );
#470 = CARTESIAN_POINT( '', ( 0.000000000000000, -4.30483321611339E-16, 0.000000000000000 ) );
#471 = DIRECTION( '', ( 1.00000000000000, -6.12323399573676E-17, -0.000000000000000 ) );
#472 = DIRECTION( '', ( 6.12323399573677E-17, 1.00000000000000, 0.000000000000000 ) );
#473 = DIRECTION( '', ( 0.000000000000000, 0.000000000000000, 1.00000000000000 ) );
#474 = CARTESIAN_POINT( '', ( 75.5000000000000, -5.05352498839260E-15, 0.000000000000000 ) );
#475 = DIRECTION( '', ( 1.00000000000000, -6.12323399573676E-17, -0.000000000000000 ) );
#476 = DIRECTION( '', ( 6.12323399573676E-17, 1.00000000000000, 0.000000000000000 ) );
#477 = CARTESIAN_POINT( '', ( 70.9623000000000, -4.77567099936805E-15, 0.000000000000000 ) );
#478 = DIRECTION( '', ( 1.00000000000000, -6.12323399573677E-17, -0.000000000000000 ) );
#479 = DIRECTION( '', ( 6.12323399573677E-17, 1.00000000000000, 0.000000000000000 ) );
ENDSEC;
END-ISO-10303-21;
