ISO-10303-21;
HEADER;
FILE_DESCRIPTION( ( 'STEP AP214' ), '1' );
FILE_NAME( '//goodhand-server/Shared Folders/GoodHand Data/Kipp CAD/K0390/K0390.201X100.stp', '2020-12-07T10:16:14', ( '' ), ( '' ), ' ', 'PARTsolutions', ' ' );
FILE_SCHEMA( ( 'AUTOMOTIVE_DESIGN { 1 0 10303 214 1 1 1 1 }' ) );
ENDSEC;
DATA;
#1 = MECHANICAL_DESIGN_GEOMETRIC_PRESENTATION_REPRESENTATION( ' ', ( #10, #11, #12, #13, #14, #15, #16, #17, #18, #19, #20, #21, #22 ), #6 );
#2 = PRODUCT_DEFINITION_CONTEXT( '', #23, 'design' );
#3 = APPLICATION_PROTOCOL_DEFINITION( 'international standard', 'automotive_design', 2001, #23 );
#4 = PRODUCT_CATEGORY_RELATIONSHIP( 'NONE', 'NONE', #24, #25 );
#5 = SHAPE_DEFINITION_REPRESENTATION( #26, #27 );
#6 =  ( GEOMETRIC_REPRESENTATION_CONTEXT( 3 )GLOBAL_UNCERTAINTY_ASSIGNED_CONTEXT( ( #30 ) )GLOBAL_UNIT_ASSIGNED_CONTEXT( ( #32, #33, #34 ) )REPRESENTATION_CONTEXT( 'NONE', 'WORKSPACE' ) );
#10 = STYLED_ITEM( '', ( #36 ), #37 );
#11 = STYLED_ITEM( '', ( #38 ), #39 );
#12 = STYLED_ITEM( '', ( #40 ), #41 );
#13 = STYLED_ITEM( '', ( #42 ), #43 );
#14 = STYLED_ITEM( '', ( #44 ), #45 );
#15 = STYLED_ITEM( '', ( #46 ), #47 );
#16 = STYLED_ITEM( '', ( #48 ), #49 );
#17 = STYLED_ITEM( '', ( #50 ), #51 );
#18 = STYLED_ITEM( '', ( #52 ), #53 );
#19 = STYLED_ITEM( '', ( #54 ), #55 );
#20 = STYLED_ITEM( '', ( #56 ), #57 );
#21 = STYLED_ITEM( '', ( #58 ), #59 );
#22 = STYLED_ITEM( '', ( #60 ), #61 );
#23 = APPLICATION_CONTEXT( 'core data for automotive mechanical design processes' );
#24 = PRODUCT_CATEGORY( 'part', 'NONE' );
#25 = PRODUCT_RELATED_PRODUCT_CATEGORY( 'detail', ' ', ( #62 ) );
#26 = PRODUCT_DEFINITION_SHAPE( 'NONE', 'NONE', #63 );
#27 = ADVANCED_BREP_SHAPE_REPRESENTATION( '_K0390.201X100', ( #64, #65 ), #6 );
#30 = UNCERTAINTY_MEASURE_WITH_UNIT( LENGTH_MEASURE( 0.00100000000000000 ), #32, '', '' );
#32 =  ( CONVERSION_BASED_UNIT( 'MILLIMETRE', #68 )LENGTH_UNIT(  )NAMED_UNIT( #71 ) );
#33 =  ( NAMED_UNIT( #73 )PLANE_ANGLE_UNIT(  )SI_UNIT( $, .RADIAN. ) );
#34 =  ( NAMED_UNIT( #73 )SI_UNIT( $, .STERADIAN. )SOLID_ANGLE_UNIT(  ) );
#36 = PRESENTATION_STYLE_ASSIGNMENT( ( #79 ) );
#37 = ADVANCED_FACE( '', ( #80, #81 ), #82, .T. );
#38 = PRESENTATION_STYLE_ASSIGNMENT( ( #83 ) );
#39 = ADVANCED_FACE( '', ( #84 ), #85, .F. );
#40 = PRESENTATION_STYLE_ASSIGNMENT( ( #86 ) );
#41 = ADVANCED_FACE( '', ( #87 ), #88, .T. );
#42 = PRESENTATION_STYLE_ASSIGNMENT( ( #89 ) );
#43 = ADVANCED_FACE( '', ( #90 ), #91, .T. );
#44 = PRESENTATION_STYLE_ASSIGNMENT( ( #92 ) );
#45 = ADVANCED_FACE( '', ( #93, #94 ), #95, .T. );
#46 = PRESENTATION_STYLE_ASSIGNMENT( ( #96 ) );
#47 = ADVANCED_FACE( '', ( #97 ), #98, .F. );
#48 = PRESENTATION_STYLE_ASSIGNMENT( ( #99 ) );
#49 = ADVANCED_FACE( '', ( #100, #101 ), #102, .T. );
#50 = PRESENTATION_STYLE_ASSIGNMENT( ( #103 ) );
#51 = ADVANCED_FACE( '', ( #104 ), #105, .F. );
#52 = PRESENTATION_STYLE_ASSIGNMENT( ( #106 ) );
#53 = ADVANCED_FACE( '', ( #107, #108 ), #109, .T. );
#54 = PRESENTATION_STYLE_ASSIGNMENT( ( #110 ) );
#55 = ADVANCED_FACE( '', ( #111, #112 ), #113, .F. );
#56 = PRESENTATION_STYLE_ASSIGNMENT( ( #114 ) );
#57 = ADVANCED_FACE( '', ( #115 ), #116, .T. );
#58 = PRESENTATION_STYLE_ASSIGNMENT( ( #117 ) );
#59 = ADVANCED_FACE( '', ( #118 ), #119, .F. );
#60 = PRESENTATION_STYLE_ASSIGNMENT( ( #120 ) );
#61 = ADVANCED_FACE( '', ( #121, #122 ), #123, .T. );
#62 = PRODUCT( '_K0390.201X100', '_K0390.201X100', 'PART-_K0390.201X100-DESC', ( #124 ) );
#63 = PRODUCT_DEFINITION( 'NONE', 'NONE', #125, #2 );
#64 = MANIFOLD_SOLID_BREP( '_K0390.201X100', #126 );
#65 = AXIS2_PLACEMENT_3D( '', #127, #128, #129 );
#68 = LENGTH_MEASURE_WITH_UNIT( LENGTH_MEASURE( 1.00000000000000 ), #130 );
#71 = DIMENSIONAL_EXPONENTS( 1.00000000000000, 0.000000000000000, 0.000000000000000, 0.000000000000000, 0.000000000000000, 0.000000000000000, 0.000000000000000 );
#73 = DIMENSIONAL_EXPONENTS( 0.000000000000000, 0.000000000000000, 0.000000000000000, 0.000000000000000, 0.000000000000000, 0.000000000000000, 0.000000000000000 );
#79 = SURFACE_STYLE_USAGE( .BOTH., #131 );
#80 = FACE_OUTER_BOUND( '', #132, .T. );
#81 = FACE_OUTER_BOUND( '', #133, .T. );
#82 = CYLINDRICAL_SURFACE( '', #134, 7.75000000000000 );
#83 = SURFACE_STYLE_USAGE( .BOTH., #135 );
#84 = FACE_OUTER_BOUND( '', #136, .T. );
#85 = PLANE( '', #137 );
#86 = SURFACE_STYLE_USAGE( .BOTH., #138 );
#87 = FACE_OUTER_BOUND( '', #139, .T. );
#88 = CONICAL_SURFACE( '', #140, 8.46650000000000, 0.785398163400000 );
#89 = SURFACE_STYLE_USAGE( .BOTH., #141 );
#90 = FACE_OUTER_BOUND( '', #142, .T. );
#91 = CONICAL_SURFACE( '', #143, 8.46650000000000, 0.785398163400000 );
#92 = SURFACE_STYLE_USAGE( .BOTH., #144 );
#93 = FACE_OUTER_BOUND( '', #145, .T. );
#94 = FACE_OUTER_BOUND( '', #146, .T. );
#95 = CYLINDRICAL_SURFACE( '', #147, 7.20000000000000 );
#96 = SURFACE_STYLE_USAGE( .BOTH., #148 );
#97 = FACE_OUTER_BOUND( '', #149, .T. );
#98 = PLANE( '', #150 );
#99 = SURFACE_STYLE_USAGE( .BOTH., #151 );
#100 = FACE_BOUND( '', #152, .T. );
#101 = FACE_OUTER_BOUND( '', #153, .T. );
#102 = SPHERICAL_SURFACE( '', #154, 12.9998500000000 );
#103 = SURFACE_STYLE_USAGE( .BOTH., #155 );
#104 = FACE_OUTER_BOUND( '', #156, .T. );
#105 = PLANE( '', #157 );
#106 = SURFACE_STYLE_USAGE( .BOTH., #158 );
#107 = FACE_OUTER_BOUND( '', #159, .T. );
#108 = FACE_OUTER_BOUND( '', #160, .T. );
#109 = CYLINDRICAL_SURFACE( '', #161, 10.0000000000000 );
#110 = SURFACE_STYLE_USAGE( .BOTH., #162 );
#111 = FACE_OUTER_BOUND( '', #163, .T. );
#112 = FACE_BOUND( '', #164, .T. );
#113 = PLANE( '', #165 );
#114 = SURFACE_STYLE_USAGE( .BOTH., #166 );
#115 = FACE_OUTER_BOUND( '', #167, .T. );
#116 = PLANE( '', #168 );
#117 = SURFACE_STYLE_USAGE( .BOTH., #169 );
#118 = FACE_OUTER_BOUND( '', #170, .T. );
#119 = PLANE( '', #171 );
#120 = SURFACE_STYLE_USAGE( .BOTH., #172 );
#121 = FACE_BOUND( '', #173, .T. );
#122 = FACE_OUTER_BOUND( '', #174, .T. );
#123 = CONICAL_SURFACE( '', #175, 10.0000000000000, 1.12234211560000 );
#124 = PRODUCT_CONTEXT( '', #23, 'mechanical' );
#125 = PRODUCT_DEFINITION_FORMATION_WITH_SPECIFIED_SOURCE( ' ', 'NONE', #62, .NOT_KNOWN. );
#126 = CLOSED_SHELL( '', ( #51, #59, #49, #37, #55, #45, #61, #53, #43, #47, #41, #39, #57 ) );
#127 = CARTESIAN_POINT( '', ( 0.000000000000000, 0.000000000000000, 0.000000000000000 ) );
#128 = DIRECTION( '', ( 0.000000000000000, 0.000000000000000, 1.00000000000000 ) );
#129 = DIRECTION( '', ( 1.00000000000000, 0.000000000000000, 0.000000000000000 ) );
#130 =  ( LENGTH_UNIT(  )NAMED_UNIT( #71 )SI_UNIT( .MILLI., .METRE. ) );
#131 = SURFACE_SIDE_STYLE( '', ( #177 ) );
#132 = EDGE_LOOP( '', ( #178 ) );
#133 = EDGE_LOOP( '', ( #179 ) );
#134 = AXIS2_PLACEMENT_3D( '', #180, #181, #182 );
#135 = SURFACE_SIDE_STYLE( '', ( #183 ) );
#136 = EDGE_LOOP( '', ( #184, #185 ) );
#137 = AXIS2_PLACEMENT_3D( '', #186, #187, #188 );
#138 = SURFACE_SIDE_STYLE( '', ( #189 ) );
#139 = EDGE_LOOP( '', ( #190, #191, #192, #193 ) );
#140 = AXIS2_PLACEMENT_3D( '', #194, #195, #196 );
#141 = SURFACE_SIDE_STYLE( '', ( #197 ) );
#142 = EDGE_LOOP( '', ( #198, #199, #200, #201 ) );
#143 = AXIS2_PLACEMENT_3D( '', #202, #203, #204 );
#144 = SURFACE_SIDE_STYLE( '', ( #205 ) );
#145 = EDGE_LOOP( '', ( #206 ) );
#146 = EDGE_LOOP( '', ( #207 ) );
#147 = AXIS2_PLACEMENT_3D( '', #208, #209, #210 );
#148 = SURFACE_SIDE_STYLE( '', ( #211 ) );
#149 = EDGE_LOOP( '', ( #212, #213 ) );
#150 = AXIS2_PLACEMENT_3D( '', #214, #215, #216 );
#151 = SURFACE_SIDE_STYLE( '', ( #217 ) );
#152 = VERTEX_LOOP( '', #218 );
#153 = EDGE_LOOP( '', ( #219 ) );
#154 = AXIS2_PLACEMENT_3D( '', #220, #221, #222 );
#155 = SURFACE_SIDE_STYLE( '', ( #223 ) );
#156 = EDGE_LOOP( '', ( #224, #225, #226, #227, #228, #229 ) );
#157 = AXIS2_PLACEMENT_3D( '', #230, #231, #232 );
#158 = SURFACE_SIDE_STYLE( '', ( #233 ) );
#159 = EDGE_LOOP( '', ( #234 ) );
#160 = EDGE_LOOP( '', ( #235, #236, #237, #238, #239, #240, #241, #242 ) );
#161 = AXIS2_PLACEMENT_3D( '', #243, #244, #245 );
#162 = SURFACE_SIDE_STYLE( '', ( #246 ) );
#163 = EDGE_LOOP( '', ( #247 ) );
#164 = EDGE_LOOP( '', ( #248 ) );
#165 = AXIS2_PLACEMENT_3D( '', #249, #250, #251 );
#166 = SURFACE_SIDE_STYLE( '', ( #252 ) );
#167 = EDGE_LOOP( '', ( #253, #254, #255, #256 ) );
#168 = AXIS2_PLACEMENT_3D( '', #257, #258, #259 );
#169 = SURFACE_SIDE_STYLE( '', ( #260 ) );
#170 = EDGE_LOOP( '', ( #261, #262, #263, #264, #265, #266 ) );
#171 = AXIS2_PLACEMENT_3D( '', #267, #268, #269 );
#172 = SURFACE_SIDE_STYLE( '', ( #270 ) );
#173 = EDGE_LOOP( '', ( #271 ) );
#174 = EDGE_LOOP( '', ( #272 ) );
#175 = AXIS2_PLACEMENT_3D( '', #273, #274, #275 );
#177 = SURFACE_STYLE_FILL_AREA( #276 );
#178 = ORIENTED_EDGE( '', *, *, #277, .F. );
#179 = ORIENTED_EDGE( '', *, *, #278, .T. );
#180 = CARTESIAN_POINT( '', ( 100.000000000000, -7.10542735760100E-15, 0.000000000000000 ) );
#181 = DIRECTION( '', ( -1.00000000000000, 6.12323399573677E-17, 0.000000000000000 ) );
#182 = DIRECTION( '', ( 6.12323399573677E-17, 1.00000000000000, 0.000000000000000 ) );
#183 = SURFACE_STYLE_FILL_AREA( #279 );
#184 = ORIENTED_EDGE( '', *, *, #280, .F. );
#185 = ORIENTED_EDGE( '', *, *, #281, .F. );
#186 = CARTESIAN_POINT( '', ( -2.59211803124527E-16, -9.82193361864235E-16, 0.000000000000000 ) );
#187 = DIRECTION( '', ( 1.00000000000000, -6.12323399573677E-17, -0.000000000000000 ) );
#188 = DIRECTION( '', ( 6.12323399573677E-17, 1.00000000000000, 0.000000000000000 ) );
#189 = SURFACE_STYLE_FILL_AREA( #282 );
#190 = ORIENTED_EDGE( '', *, *, #283, .F. );
#191 = ORIENTED_EDGE( '', *, *, #284, .T. );
#192 = ORIENTED_EDGE( '', *, *, #285, .T. );
#193 = ORIENTED_EDGE( '', *, *, #286, .T. );
#194 = CARTESIAN_POINT( '', ( 0.000000000000000, -9.82193361864234E-16, 0.000000000000000 ) );
#195 = DIRECTION( '', ( 1.00000000000000, -6.12323399573677E-17, -0.000000000000000 ) );
#196 = DIRECTION( '', ( 6.12323399573677E-17, 1.00000000000000, 0.000000000000000 ) );
#197 = SURFACE_STYLE_FILL_AREA( #287 );
#198 = ORIENTED_EDGE( '', *, *, #280, .T. );
#199 = ORIENTED_EDGE( '', *, *, #288, .T. );
#200 = ORIENTED_EDGE( '', *, *, #289, .F. );
#201 = ORIENTED_EDGE( '', *, *, #290, .T. );
#202 = CARTESIAN_POINT( '', ( 0.000000000000000, -9.82193361864234E-16, 0.000000000000000 ) );
#203 = DIRECTION( '', ( 1.00000000000000, -6.12323399573677E-17, -0.000000000000000 ) );
#204 = DIRECTION( '', ( 6.12323399573677E-17, 1.00000000000000, 0.000000000000000 ) );
#205 = SURFACE_STYLE_FILL_AREA( #291 );
#206 = ORIENTED_EDGE( '', *, *, #292, .F. );
#207 = ORIENTED_EDGE( '', *, *, #293, .T. );
#208 = CARTESIAN_POINT( '', ( 100.000000000000, -7.10542735760100E-15, 0.000000000000000 ) );
#209 = DIRECTION( '', ( -1.00000000000000, 6.12323399573677E-17, 0.000000000000000 ) );
#210 = DIRECTION( '', ( 6.12323399573677E-17, 1.00000000000000, 0.000000000000000 ) );
#211 = SURFACE_STYLE_FILL_AREA( #294 );
#212 = ORIENTED_EDGE( '', *, *, #285, .F. );
#213 = ORIENTED_EDGE( '', *, *, #295, .F. );
#214 = CARTESIAN_POINT( '', ( -2.59211803124527E-16, -9.82193361864235E-16, 0.000000000000000 ) );
#215 = DIRECTION( '', ( 1.00000000000000, -6.12323399573677E-17, -0.000000000000000 ) );
#216 = DIRECTION( '', ( 6.12323399573677E-17, 1.00000000000000, 0.000000000000000 ) );
#217 = SURFACE_STYLE_FILL_AREA( #296 );
#218 = VERTEX_POINT( '', #297 );
#219 = ORIENTED_EDGE( '', *, *, #277, .T. );
#220 = CARTESIAN_POINT( '', ( 87.0001500000002, 4.68375338513738E-14, 0.000000000000000 ) );
#221 = DIRECTION( '', ( 1.00000000000000, 0.000000000000000, 0.000000000000000 ) );
#222 = DIRECTION( '', ( 0.000000000000000, -1.00000000000000, 0.000000000000000 ) );
#223 = SURFACE_STYLE_FILL_AREA( #298 );
#224 = ORIENTED_EDGE( '', *, *, #288, .F. );
#225 = ORIENTED_EDGE( '', *, *, #281, .T. );
#226 = ORIENTED_EDGE( '', *, *, #290, .F. );
#227 = ORIENTED_EDGE( '', *, *, #299, .F. );
#228 = ORIENTED_EDGE( '', *, *, #300, .F. );
#229 = ORIENTED_EDGE( '', *, *, #301, .F. );
#230 = CARTESIAN_POINT( '', ( 3.00000000000000, 0.899999999999999, 10.5000000000000 ) );
#231 = DIRECTION( '', ( 0.000000000000000, 1.00000000000000, 0.000000000000000 ) );
#232 = DIRECTION( '', ( 0.000000000000000, -0.000000000000000, 1.00000000000000 ) );
#233 = SURFACE_STYLE_FILL_AREA( #302 );
#234 = ORIENTED_EDGE( '', *, *, #303, .F. );
#235 = ORIENTED_EDGE( '', *, *, #283, .T. );
#236 = ORIENTED_EDGE( '', *, *, #304, .T. );
#237 = ORIENTED_EDGE( '', *, *, #305, .F. );
#238 = ORIENTED_EDGE( '', *, *, #299, .T. );
#239 = ORIENTED_EDGE( '', *, *, #289, .T. );
#240 = ORIENTED_EDGE( '', *, *, #301, .T. );
#241 = ORIENTED_EDGE( '', *, *, #306, .F. );
#242 = ORIENTED_EDGE( '', *, *, #307, .T. );
#243 = CARTESIAN_POINT( '', ( 100.000000000000, -7.10542735760100E-15, 0.000000000000000 ) );
#244 = DIRECTION( '', ( -1.00000000000000, 6.12323399573677E-17, 0.000000000000000 ) );
#245 = DIRECTION( '', ( 6.12323399573677E-17, 1.00000000000000, 0.000000000000000 ) );
#246 = SURFACE_STYLE_FILL_AREA( #308 );
#247 = ORIENTED_EDGE( '', *, *, #278, .F. );
#248 = ORIENTED_EDGE( '', *, *, #292, .T. );
#249 = CARTESIAN_POINT( '', ( 94.5000000000000, 7.19999999999999, 0.000000000000000 ) );
#250 = DIRECTION( '', ( 1.00000000000000, -6.12323399573677E-17, -0.000000000000000 ) );
#251 = DIRECTION( '', ( 6.12323399573677E-17, 1.00000000000000, 0.000000000000000 ) );
#252 = SURFACE_STYLE_FILL_AREA( #309 );
#253 = ORIENTED_EDGE( '', *, *, #305, .T. );
#254 = ORIENTED_EDGE( '', *, *, #310, .T. );
#255 = ORIENTED_EDGE( '', *, *, #306, .T. );
#256 = ORIENTED_EDGE( '', *, *, #300, .T. );
#257 = CARTESIAN_POINT( '', ( 3.00000000000000, 0.000000000000000, 0.000000000000000 ) );
#258 = DIRECTION( '', ( -1.00000000000000, 0.000000000000000, 0.000000000000000 ) );
#259 = DIRECTION( '', ( 0.000000000000000, 0.000000000000000, 1.00000000000000 ) );
#260 = SURFACE_STYLE_FILL_AREA( #311 );
#261 = ORIENTED_EDGE( '', *, *, #295, .T. );
#262 = ORIENTED_EDGE( '', *, *, #284, .F. );
#263 = ORIENTED_EDGE( '', *, *, #307, .F. );
#264 = ORIENTED_EDGE( '', *, *, #310, .F. );
#265 = ORIENTED_EDGE( '', *, *, #304, .F. );
#266 = ORIENTED_EDGE( '', *, *, #286, .F. );
#267 = CARTESIAN_POINT( '', ( 3.00000000000000, -0.900000000000001, -10.5000000000000 ) );
#268 = DIRECTION( '', ( 0.000000000000000, -1.00000000000000, 0.000000000000000 ) );
#269 = DIRECTION( '', ( 0.000000000000000, 0.000000000000000, -1.00000000000000 ) );
#270 = SURFACE_STYLE_FILL_AREA( #312 );
#271 = ORIENTED_EDGE( '', *, *, #293, .F. );
#272 = ORIENTED_EDGE( '', *, *, #303, .T. );
#273 = CARTESIAN_POINT( '', ( 86.0000000000000, -6.24817459819785E-15, 0.000000000000000 ) );
#274 = DIRECTION( '', ( -1.00000000000000, 6.12323399573677E-17, -0.000000000000000 ) );
#275 = DIRECTION( '', ( -6.12323399573677E-17, -1.00000000000000, 0.000000000000000 ) );
#276 = FILL_AREA_STYLE( '', ( #313 ) );
#277 = EDGE_CURVE( '', #314, #314, #315, .T. );
#278 = EDGE_CURVE( '', #316, #316, #317, .T. );
#279 = FILL_AREA_STYLE( '', ( #318 ) );
#280 = EDGE_CURVE( '', #319, #320, #321, .T. );
#281 = EDGE_CURVE( '', #320, #319, #322, .T. );
#282 = FILL_AREA_STYLE( '', ( #323 ) );
#283 = EDGE_CURVE( '', #324, #325, #326, .T. );
#284 = EDGE_CURVE( '', #324, #327, #328, .T. );
#285 = EDGE_CURVE( '', #327, #329, #330, .T. );
#286 = EDGE_CURVE( '', #329, #325, #331, .T. );
#287 = FILL_AREA_STYLE( '', ( #332 ) );
#288 = EDGE_CURVE( '', #320, #333, #334, .T. );
#289 = EDGE_CURVE( '', #335, #333, #336, .T. );
#290 = EDGE_CURVE( '', #335, #319, #337, .T. );
#291 = FILL_AREA_STYLE( '', ( #338 ) );
#292 = EDGE_CURVE( '', #339, #339, #340, .T. );
#293 = EDGE_CURVE( '', #341, #341, #342, .T. );
#294 = FILL_AREA_STYLE( '', ( #343 ) );
#295 = EDGE_CURVE( '', #329, #327, #344, .T. );
#296 = FILL_AREA_STYLE( '', ( #345 ) );
#297 = CARTESIAN_POINT( '', ( 100.000000000000, 4.52455113821842E-14, 0.000000000000000 ) );
#298 = FILL_AREA_STYLE( '', ( #346 ) );
#299 = EDGE_CURVE( '', #347, #335, #348, .F. );
#300 = EDGE_CURVE( '', #349, #347, #350, .T. );
#301 = EDGE_CURVE( '', #333, #349, #351, .T. );
#302 = FILL_AREA_STYLE( '', ( #352 ) );
#303 = EDGE_CURVE( '', #353, #353, #354, .T. );
#304 = EDGE_CURVE( '', #325, #355, #356, .T. );
#305 = EDGE_CURVE( '', #347, #355, #357, .T. );
#306 = EDGE_CURVE( '', #358, #349, #359, .T. );
#307 = EDGE_CURVE( '', #358, #324, #360, .F. );
#308 = FILL_AREA_STYLE( '', ( #361 ) );
#309 = FILL_AREA_STYLE( '', ( #362 ) );
#310 = EDGE_CURVE( '', #355, #358, #363, .T. );
#311 = FILL_AREA_STYLE( '', ( #364 ) );
#312 = FILL_AREA_STYLE( '', ( #365 ) );
#313 = FILL_AREA_STYLE_COLOUR( '', #366 );
#314 = VERTEX_POINT( '', #367 );
#315 = CIRCLE( '', #368, 7.75000000000000 );
#316 = VERTEX_POINT( '', #369 );
#317 = CIRCLE( '', #370, 7.75000000000000 );
#318 = FILL_AREA_STYLE_COLOUR( '', #371 );
#319 = VERTEX_POINT( '', #372 );
#320 = VERTEX_POINT( '', #373 );
#321 = CIRCLE( '', #374, 8.46650000000000 );
#322 = LINE( '', #375, #376 );
#323 = FILL_AREA_STYLE_COLOUR( '', #377 );
#324 = VERTEX_POINT( '', #378 );
#325 = VERTEX_POINT( '', #379 );
#326 = CIRCLE( '', #380, 10.0000000000000 );
#327 = VERTEX_POINT( '', #381 );
#328 = B_SPLINE_CURVE_WITH_KNOTS( '', 3, ( #382, #383, #384, #385 ), .UNSPECIFIED., .F., .F., ( 4, 4 ), ( 0.0170363399290313, 0.0192102676191474 ), .UNSPECIFIED. );
#329 = VERTEX_POINT( '', #386 );
#330 = CIRCLE( '', #387, 8.46650000000000 );
#331 = B_SPLINE_CURVE_WITH_KNOTS( '', 3, ( #388, #389, #390, #391 ), .UNSPECIFIED., .F., .F., ( 4, 4 ), ( 0.0420335464893133, 0.0442124251860489 ), .UNSPECIFIED. );
#332 = FILL_AREA_STYLE_COLOUR( '', #392 );
#333 = VERTEX_POINT( '', #393 );
#334 = B_SPLINE_CURVE_WITH_KNOTS( '', 3, ( #394, #395, #396, #397 ), .UNSPECIFIED., .F., .F., ( 4, 4 ), ( 0.0420335464893133, 0.0442124251860490 ), .UNSPECIFIED. );
#335 = VERTEX_POINT( '', #398 );
#336 = CIRCLE( '', #399, 10.0000000000000 );
#337 = B_SPLINE_CURVE_WITH_KNOTS( '', 3, ( #400, #401, #402, #403 ), .UNSPECIFIED., .F., .F., ( 4, 4 ), ( 0.0170363399290313, 0.0192102676191474 ), .UNSPECIFIED. );
#338 = FILL_AREA_STYLE_COLOUR( '', #404 );
#339 = VERTEX_POINT( '', #405 );
#340 = CIRCLE( '', #406, 7.20000000000000 );
#341 = VERTEX_POINT( '', #407 );
#342 = CIRCLE( '', #408, 7.20000000000000 );
#343 = FILL_AREA_STYLE_COLOUR( '', #409 );
#344 = LINE( '', #410, #411 );
#345 = FILL_AREA_STYLE_COLOUR( '', #412 );
#346 = FILL_AREA_STYLE_COLOUR( '', #413 );
#347 = VERTEX_POINT( '', #414 );
#348 = LINE( '', #415, #416 );
#349 = VERTEX_POINT( '', #417 );
#350 = LINE( '', #418, #419 );
#351 = LINE( '', #420, #421 );
#352 = FILL_AREA_STYLE_COLOUR( '', #422 );
#353 = VERTEX_POINT( '', #423 );
#354 = CIRCLE( '', #424, 10.0000000000000 );
#355 = VERTEX_POINT( '', #425 );
#356 = LINE( '', #426, #427 );
#357 = CIRCLE( '', #428, 10.0000000000000 );
#358 = VERTEX_POINT( '', #429 );
#359 = CIRCLE( '', #430, 10.0000000000000 );
#360 = LINE( '', #431, #432 );
#361 = FILL_AREA_STYLE_COLOUR( '', #433 );
#362 = FILL_AREA_STYLE_COLOUR( '', #434 );
#363 = LINE( '', #435, #436 );
#364 = FILL_AREA_STYLE_COLOUR( '', #437 );
#365 = FILL_AREA_STYLE_COLOUR( '', #438 );
#366 = COLOUR_RGB( '', 0.689999997600000, 0.689999997600000, 0.689999997600000 );
#367 = CARTESIAN_POINT( '', ( 97.4372760422829, 7.74999999999999, 0.000000000000000 ) );
#368 = AXIS2_PLACEMENT_3D( '', #439, #440, #441 );
#369 = CARTESIAN_POINT( '', ( 94.5000000000000, 7.74999999999999, 0.000000000000000 ) );
#370 = AXIS2_PLACEMENT_3D( '', #442, #443, #444 );
#371 = COLOUR_RGB( '', 0.689999997600000, 0.689999997600000, 0.689999997600000 );
#372 = CARTESIAN_POINT( '', ( 0.000000000000000, 0.899999999999999, -8.41852850859341 ) );
#373 = CARTESIAN_POINT( '', ( 0.000000000000000, 0.899999999999999, 8.41852850859341 ) );
#374 = AXIS2_PLACEMENT_3D( '', #445, #446, #447 );
#375 = CARTESIAN_POINT( '', ( 0.000000000000000, 0.899999999999999, 10.5000000000000 ) );
#376 = VECTOR( '', #448, 1000.00000000000 );
#377 = COLOUR_RGB( '', 0.689999997600000, 0.689999997600000, 0.689999997600000 );
#378 = CARTESIAN_POINT( '', ( 1.53350000000001, -0.899999999999995, 9.95941765365827 ) );
#379 = CARTESIAN_POINT( '', ( 1.53350000000001, -0.899999999999995, -9.95941765365827 ) );
#380 = AXIS2_PLACEMENT_3D( '', #449, #450, #451 );
#381 = CARTESIAN_POINT( '', ( 0.000000000000000, -0.900000000000001, 8.41852850859341 ) );
#382 = CARTESIAN_POINT( '', ( 1.53350000000001, -0.900000000000001, 9.95941765365827 ) );
#383 = CARTESIAN_POINT( '', ( 1.02214317772921, -0.900000000000001, 9.44597716943180 ) );
#384 = CARTESIAN_POINT( '', ( 0.510941888387719, -0.900000000000001, 8.93238190869996 ) );
#385 = CARTESIAN_POINT( '', ( -1.74401581618307E-15, -0.900000000000001, 8.41852850859341 ) );
#386 = CARTESIAN_POINT( '', ( 0.000000000000000, -0.900000000000001, -8.41852850859341 ) );
#387 = AXIS2_PLACEMENT_3D( '', #452, #453, #454 );
#388 = CARTESIAN_POINT( '', ( -1.25458603705600E-15, -0.900000000000001, -8.41852850859341 ) );
#389 = CARTESIAN_POINT( '', ( 0.510941899449512, -0.900000000000001, -8.93238191982478 ) );
#390 = CARTESIAN_POINT( '', ( 1.02214318709475, -0.900000000000001, -9.44597717883551 ) );
#391 = CARTESIAN_POINT( '', ( 1.53350000000001, -0.900000000000001, -9.95941765365827 ) );
#392 = COLOUR_RGB( '', 0.689999997600000, 0.689999997600000, 0.689999997600000 );
#393 = CARTESIAN_POINT( '', ( 1.53350000000001, 0.900000000000005, 9.95941765365827 ) );
#394 = CARTESIAN_POINT( '', ( -3.36727106945044E-16, 0.899999999999999, 8.41852850859341 ) );
#395 = CARTESIAN_POINT( '', ( 0.510941899449511, 0.899999999999999, 8.93238191982478 ) );
#396 = CARTESIAN_POINT( '', ( 1.02214318709475, 0.899999999999999, 9.44597717883550 ) );
#397 = CARTESIAN_POINT( '', ( 1.53350000000001, 0.899999999999999, 9.95941765365827 ) );
#398 = CARTESIAN_POINT( '', ( 1.53350000000001, 0.900000000000005, -9.95941765365827 ) );
#399 = AXIS2_PLACEMENT_3D( '', #455, #456, #457 );
#400 = CARTESIAN_POINT( '', ( 1.53350000000000, 0.899999999999999, -9.95941765365827 ) );
#401 = CARTESIAN_POINT( '', ( 1.02214317772921, 0.899999999999999, -9.44597716943180 ) );
#402 = CARTESIAN_POINT( '', ( 0.510941888387718, 0.899999999999999, -8.93238190869995 ) );
#403 = CARTESIAN_POINT( '', ( -1.68891369666574E-15, 0.899999999999999, -8.41852850859341 ) );
#404 = COLOUR_RGB( '', 0.689999997600000, 0.689999997600000, 0.689999997600000 );
#405 = CARTESIAN_POINT( '', ( 94.5000000000000, 7.19999999999999, 0.000000000000000 ) );
#406 = AXIS2_PLACEMENT_3D( '', #458, #459, #460 );
#407 = CARTESIAN_POINT( '', ( 87.3472200000000, 7.19999999999999, 0.000000000000000 ) );
#408 = AXIS2_PLACEMENT_3D( '', #461, #462, #463 );
#409 = COLOUR_RGB( '', 0.689999997600000, 0.689999997600000, 0.689999997600000 );
#410 = CARTESIAN_POINT( '', ( 0.000000000000000, -0.900000000000001, -10.5000000000000 ) );
#411 = VECTOR( '', #464, 1000.00000000000 );
#412 = COLOUR_RGB( '', 0.689999997600000, 0.689999997600000, 0.689999997600000 );
#413 = COLOUR_RGB( '', 0.689999997600000, 0.689999997600000, 0.689999997600000 );
#414 = CARTESIAN_POINT( '', ( 3.00000000000000, 0.899999999999999, -9.95941765365827 ) );
#415 = CARTESIAN_POINT( '', ( 100.000000000000, 0.899999999999999, -9.95941765365827 ) );
#416 = VECTOR( '', #465, 1000.00000000000 );
#417 = CARTESIAN_POINT( '', ( 3.00000000000000, 0.899999999999999, 9.95941765365827 ) );
#418 = CARTESIAN_POINT( '', ( 3.00000000000000, 0.899999999999999, 10.5000000000000 ) );
#419 = VECTOR( '', #466, 1000.00000000000 );
#420 = CARTESIAN_POINT( '', ( 100.000000000000, 0.899999999999999, 9.95941765365827 ) );
#421 = VECTOR( '', #467, 1000.00000000000 );
#422 = COLOUR_RGB( '', 0.689999997600000, 0.689999997600000, 0.689999997600000 );
#423 = CARTESIAN_POINT( '', ( 86.0000000000000, 9.99999999999999, 0.000000000000000 ) );
#424 = AXIS2_PLACEMENT_3D( '', #468, #469, #470 );
#425 = CARTESIAN_POINT( '', ( 3.00000000000000, -0.900000000000001, -9.95941765365827 ) );
#426 = CARTESIAN_POINT( '', ( 100.000000000000, -0.900000000000001, -9.95941765365827 ) );
#427 = VECTOR( '', #471, 1000.00000000000 );
#428 = AXIS2_PLACEMENT_3D( '', #472, #473, #474 );
#429 = CARTESIAN_POINT( '', ( 3.00000000000000, -0.900000000000001, 9.95941765365827 ) );
#430 = AXIS2_PLACEMENT_3D( '', #475, #476, #477 );
#431 = CARTESIAN_POINT( '', ( 100.000000000000, -0.900000000000001, 9.95941765365827 ) );
#432 = VECTOR( '', #478, 1000.00000000000 );
#433 = COLOUR_RGB( '', 0.689999997600000, 0.689999997600000, 0.689999997600000 );
#434 = COLOUR_RGB( '', 0.689999997600000, 0.689999997600000, 0.689999997600000 );
#435 = CARTESIAN_POINT( '', ( 3.00000000000000, -0.900000000000001, -10.5000000000000 ) );
#436 = VECTOR( '', #479, 1000.00000000000 );
#437 = COLOUR_RGB( '', 0.689999997600000, 0.689999997600000, 0.689999997600000 );
#438 = COLOUR_RGB( '', 0.689999997600000, 0.689999997600000, 0.689999997600000 );
#439 = CARTESIAN_POINT( '', ( 97.4372760422829, -6.94850577300518E-15, 0.000000000000000 ) );
#440 = DIRECTION( '', ( 1.00000000000000, -6.12323399573677E-17, -0.000000000000000 ) );
#441 = DIRECTION( '', ( 6.12323399573677E-17, 1.00000000000000, 0.000000000000000 ) );
#442 = CARTESIAN_POINT( '', ( 94.5000000000000, -6.76864948783548E-15, 0.000000000000000 ) );
#443 = DIRECTION( '', ( 1.00000000000000, -6.12323399573677E-17, -0.000000000000000 ) );
#444 = DIRECTION( '', ( 6.12323399573677E-17, 1.00000000000000, 0.000000000000000 ) );
#445 = CARTESIAN_POINT( '', ( 0.000000000000000, -9.82193361864234E-16, 0.000000000000000 ) );
#446 = DIRECTION( '', ( 1.00000000000000, -6.12323399573677E-17, -0.000000000000000 ) );
#447 = DIRECTION( '', ( 6.12323399573677E-17, 1.00000000000000, 0.000000000000000 ) );
#448 = DIRECTION( '', ( 0.000000000000000, 0.000000000000000, -1.00000000000000 ) );
#449 = CARTESIAN_POINT( '', ( 1.53350000000001, -1.07609315518886E-15, 0.000000000000000 ) );
#450 = DIRECTION( '', ( 1.00000000000000, -6.12323399573677E-17, -0.000000000000000 ) );
#451 = DIRECTION( '', ( 6.12323399573677E-17, 1.00000000000000, 0.000000000000000 ) );
#452 = CARTESIAN_POINT( '', ( 0.000000000000000, -9.82193361864234E-16, 0.000000000000000 ) );
#453 = DIRECTION( '', ( 1.00000000000000, -6.12323399573677E-17, -0.000000000000000 ) );
#454 = DIRECTION( '', ( 6.12323399573677E-17, 1.00000000000000, 0.000000000000000 ) );
#455 = CARTESIAN_POINT( '', ( 1.53350000000001, -1.07609315518886E-15, 0.000000000000000 ) );
#456 = DIRECTION( '', ( 1.00000000000000, -6.12323399573677E-17, -0.000000000000000 ) );
#457 = DIRECTION( '', ( 6.12323399573677E-17, 1.00000000000000, 0.000000000000000 ) );
#458 = CARTESIAN_POINT( '', ( 94.5000000000000, -6.76864948783548E-15, 0.000000000000000 ) );
#459 = DIRECTION( '', ( 1.00000000000000, -6.12323399573677E-17, -0.000000000000000 ) );
#460 = DIRECTION( '', ( 6.12323399573677E-17, 1.00000000000000, 0.000000000000000 ) );
#461 = CARTESIAN_POINT( '', ( 87.3472200000000, -6.33066803123522E-15, 0.000000000000000 ) );
#462 = DIRECTION( '', ( 1.00000000000000, -6.12323399573677E-17, -0.000000000000000 ) );
#463 = DIRECTION( '', ( 6.12323399573677E-17, 1.00000000000000, 0.000000000000000 ) );
#464 = DIRECTION( '', ( 0.000000000000000, 0.000000000000000, 1.00000000000000 ) );
#465 = DIRECTION( '', ( 1.00000000000000, -6.12323399573677E-17, -0.000000000000000 ) );
#466 = DIRECTION( '', ( 0.000000000000000, 0.000000000000000, -1.00000000000000 ) );
#467 = DIRECTION( '', ( 1.00000000000000, -6.12323399573677E-17, -0.000000000000000 ) );
#468 = CARTESIAN_POINT( '', ( 86.0000000000000, -6.24817459819785E-15, 0.000000000000000 ) );
#469 = DIRECTION( '', ( 1.00000000000000, -6.12323399573677E-17, -0.000000000000000 ) );
#470 = DIRECTION( '', ( 6.12323399573677E-17, 1.00000000000000, 0.000000000000000 ) );
#471 = DIRECTION( '', ( 1.00000000000000, -6.12323399573677E-17, -0.000000000000000 ) );
#472 = CARTESIAN_POINT( '', ( 3.00000000000000, -1.16589038173634E-15, 0.000000000000000 ) );
#473 = DIRECTION( '', ( -1.00000000000000, 0.000000000000000, 0.000000000000000 ) );
#474 = DIRECTION( '', ( 0.000000000000000, 0.000000000000000, 1.00000000000000 ) );
#475 = CARTESIAN_POINT( '', ( 3.00000000000000, -1.16589038173634E-15, 0.000000000000000 ) );
#476 = DIRECTION( '', ( -1.00000000000000, 0.000000000000000, 0.000000000000000 ) );
#477 = DIRECTION( '', ( 0.000000000000000, 0.000000000000000, 1.00000000000000 ) );
#478 = DIRECTION( '', ( 1.00000000000000, -6.12323399573677E-17, -0.000000000000000 ) );
#479 = DIRECTION( '', ( 0.000000000000000, 0.000000000000000, 1.00000000000000 ) );
ENDSEC;
END-ISO-10303-21;
