ISO-10303-21;
HEADER;
FILE_DESCRIPTION( ( 'STEP AP214' ), '1' );
FILE_NAME( '//goodhand-server/Shared Folders/GoodHand Data/Kipp CAD/K1129/K1129.2003415.stp', '2020-12-10T10:17:31', ( '' ), ( '' ), ' ', 'PARTsolutions', ' ' );
FILE_SCHEMA( ( 'AUTOMOTIVE_DESIGN { 1 0 10303 214 1 1 1 1 }' ) );
ENDSEC;
DATA;
#1 = MECHANICAL_DESIGN_GEOMETRIC_PRESENTATION_REPRESENTATION( ' ', ( #10, #11, #12, #13, #14, #15, #16, #17, #18, #19, #20, #21 ), #6 );
#2 = PRODUCT_DEFINITION_CONTEXT( '', #22, 'design' );
#3 = APPLICATION_PROTOCOL_DEFINITION( 'international standard', 'automotive_design', 2001, #22 );
#4 = PRODUCT_CATEGORY_RELATIONSHIP( 'NONE', 'NONE', #23, #24 );
#5 = SHAPE_DEFINITION_REPRESENTATION( #25, #26 );
#6 =  ( GEOMETRIC_REPRESENTATION_CONTEXT( 3 )GLOBAL_UNCERTAINTY_ASSIGNED_CONTEXT( ( #29 ) )GLOBAL_UNIT_ASSIGNED_CONTEXT( ( #31, #32, #33 ) )REPRESENTATION_CONTEXT( 'NONE', 'WORKSPACE' ) );
#10 = STYLED_ITEM( '', ( #35 ), #36 );
#11 = STYLED_ITEM( '', ( #37 ), #38 );
#12 = STYLED_ITEM( '', ( #39 ), #40 );
#13 = STYLED_ITEM( '', ( #41 ), #42 );
#14 = STYLED_ITEM( '', ( #43 ), #44 );
#15 = STYLED_ITEM( '', ( #45 ), #46 );
#16 = STYLED_ITEM( '', ( #47 ), #48 );
#17 = STYLED_ITEM( '', ( #49 ), #50 );
#18 = STYLED_ITEM( '', ( #51 ), #52 );
#19 = STYLED_ITEM( '', ( #53 ), #54 );
#20 = STYLED_ITEM( '', ( #55 ), #56 );
#21 = STYLED_ITEM( '', ( #57 ), #58 );
#22 = APPLICATION_CONTEXT( 'core data for automotive mechanical design processes' );
#23 = PRODUCT_CATEGORY( 'part', 'NONE' );
#24 = PRODUCT_RELATED_PRODUCT_CATEGORY( 'detail', ' ', ( #59 ) );
#25 = PRODUCT_DEFINITION_SHAPE( 'NONE', 'NONE', #60 );
#26 = ADVANCED_BREP_SHAPE_REPRESENTATION( '_K1129.2003415', ( #61, #62 ), #6 );
#29 = UNCERTAINTY_MEASURE_WITH_UNIT( LENGTH_MEASURE( 0.00100000000000000 ), #31, '', '' );
#31 =  ( CONVERSION_BASED_UNIT( 'MILLIMETRE', #65 )LENGTH_UNIT(  )NAMED_UNIT( #68 ) );
#32 =  ( NAMED_UNIT( #70 )PLANE_ANGLE_UNIT(  )SI_UNIT( $, .RADIAN. ) );
#33 =  ( NAMED_UNIT( #70 )SI_UNIT( $, .STERADIAN. )SOLID_ANGLE_UNIT(  ) );
#35 = PRESENTATION_STYLE_ASSIGNMENT( ( #76 ) );
#36 = ADVANCED_FACE( '', ( #77, #78 ), #79, .F. );
#37 = PRESENTATION_STYLE_ASSIGNMENT( ( #80 ) );
#38 = ADVANCED_FACE( '', ( #81 ), #82, .F. );
#39 = PRESENTATION_STYLE_ASSIGNMENT( ( #83 ) );
#40 = ADVANCED_FACE( '', ( #84, #85 ), #86, .T. );
#41 = PRESENTATION_STYLE_ASSIGNMENT( ( #87 ) );
#42 = ADVANCED_FACE( '', ( #88 ), #89, .T. );
#43 = PRESENTATION_STYLE_ASSIGNMENT( ( #90 ) );
#44 = ADVANCED_FACE( '', ( #91, #92 ), #93, .T. );
#45 = PRESENTATION_STYLE_ASSIGNMENT( ( #94 ) );
#46 = ADVANCED_FACE( '', ( #95 ), #96, .T. );
#47 = PRESENTATION_STYLE_ASSIGNMENT( ( #97 ) );
#48 = ADVANCED_FACE( '', ( #98 ), #99, .T. );
#49 = PRESENTATION_STYLE_ASSIGNMENT( ( #100 ) );
#50 = ADVANCED_FACE( '', ( #101 ), #102, .T. );
#51 = PRESENTATION_STYLE_ASSIGNMENT( ( #103 ) );
#52 = ADVANCED_FACE( '', ( #104, #105 ), #106, .T. );
#53 = PRESENTATION_STYLE_ASSIGNMENT( ( #107 ) );
#54 = ADVANCED_FACE( '', ( #108 ), #109, .T. );
#55 = PRESENTATION_STYLE_ASSIGNMENT( ( #110 ) );
#56 = ADVANCED_FACE( '', ( #111 ), #112, .T. );
#57 = PRESENTATION_STYLE_ASSIGNMENT( ( #113 ) );
#58 = ADVANCED_FACE( '', ( #114 ), #115, .F. );
#59 = PRODUCT( '_K1129.2003415', '_K1129.2003415', 'PART-_K1129.2003415-DESC', ( #116 ) );
#60 = PRODUCT_DEFINITION( 'NONE', 'NONE', #117, #2 );
#61 = MANIFOLD_SOLID_BREP( '_K1129.2003415', #118 );
#62 = AXIS2_PLACEMENT_3D( '', #119, #120, #121 );
#65 = LENGTH_MEASURE_WITH_UNIT( LENGTH_MEASURE( 1.00000000000000 ), #122 );
#68 = DIMENSIONAL_EXPONENTS( 1.00000000000000, 0.000000000000000, 0.000000000000000, 0.000000000000000, 0.000000000000000, 0.000000000000000, 0.000000000000000 );
#70 = DIMENSIONAL_EXPONENTS( 0.000000000000000, 0.000000000000000, 0.000000000000000, 0.000000000000000, 0.000000000000000, 0.000000000000000, 0.000000000000000 );
#76 = SURFACE_STYLE_USAGE( .BOTH., #123 );
#77 = FACE_OUTER_BOUND( '', #124, .T. );
#78 = FACE_BOUND( '', #125, .T. );
#79 = PLANE( '', #126 );
#80 = SURFACE_STYLE_USAGE( .BOTH., #127 );
#81 = FACE_OUTER_BOUND( '', #128, .T. );
#82 = PLANE( '', #129 );
#83 = SURFACE_STYLE_USAGE( .BOTH., #130 );
#84 = FACE_BOUND( '', #131, .T. );
#85 = FACE_OUTER_BOUND( '', #132, .T. );
#86 = CONICAL_SURFACE( '', #133, 13.3938522167000, 0.0314159265000000 );
#87 = SURFACE_STYLE_USAGE( .BOTH., #134 );
#88 = FACE_OUTER_BOUND( '', #135, .T. );
#89 = PLANE( '', #136 );
#90 = SURFACE_STYLE_USAGE( .BOTH., #137 );
#91 = FACE_OUTER_BOUND( '', #138, .T. );
#92 = FACE_BOUND( '', #139, .T. );
#93 = CONICAL_SURFACE( '', #140, 12.9095575963000, 0.769690200100000 );
#94 = SURFACE_STYLE_USAGE( .BOTH., #141 );
#95 = FACE_OUTER_BOUND( '', #142, .T. );
#96 = PLANE( '', #143 );
#97 = SURFACE_STYLE_USAGE( .BOTH., #144 );
#98 = FACE_OUTER_BOUND( '', #145, .T. );
#99 = PLANE( '', #146 );
#100 = SURFACE_STYLE_USAGE( .BOTH., #147 );
#101 = FACE_OUTER_BOUND( '', #148, .T. );
#102 = PLANE( '', #149 );
#103 = SURFACE_STYLE_USAGE( .BOTH., #150 );
#104 = FACE_BOUND( '', #151, .T. );
#105 = FACE_OUTER_BOUND( '', #152, .T. );
#106 = CONICAL_SURFACE( '', #153, 13.0481477833000, 0.801106126700000 );
#107 = SURFACE_STYLE_USAGE( .BOTH., #154 );
#108 = FACE_OUTER_BOUND( '', #155, .T. );
#109 = PLANE( '', #156 );
#110 = SURFACE_STYLE_USAGE( .BOTH., #157 );
#111 = FACE_OUTER_BOUND( '', #158, .T. );
#112 = PLANE( '', #159 );
#113 = SURFACE_STYLE_USAGE( .BOTH., #160 );
#114 = FACE_OUTER_BOUND( '', #161, .T. );
#115 = PLANE( '', #162 );
#116 = PRODUCT_CONTEXT( '', #22, 'mechanical' );
#117 = PRODUCT_DEFINITION_FORMATION_WITH_SPECIFIED_SOURCE( ' ', 'NONE', #59, .NOT_KNOWN. );
#118 = CLOSED_SHELL( '', ( #44, #36, #48, #46, #42, #38, #52, #40, #54, #56, #50, #58 ) );
#119 = CARTESIAN_POINT( '', ( 0.000000000000000, 0.000000000000000, 0.000000000000000 ) );
#120 = DIRECTION( '', ( 0.000000000000000, 0.000000000000000, 1.00000000000000 ) );
#121 = DIRECTION( '', ( 1.00000000000000, 0.000000000000000, 0.000000000000000 ) );
#122 =  ( LENGTH_UNIT(  )NAMED_UNIT( #68 )SI_UNIT( .MILLI., .METRE. ) );
#123 = SURFACE_SIDE_STYLE( '', ( #164 ) );
#124 = EDGE_LOOP( '', ( #165 ) );
#125 = EDGE_LOOP( '', ( #166, #167, #168, #169, #170, #171 ) );
#126 = AXIS2_PLACEMENT_3D( '', #172, #173, #174 );
#127 = SURFACE_SIDE_STYLE( '', ( #175 ) );
#128 = EDGE_LOOP( '', ( #176 ) );
#129 = AXIS2_PLACEMENT_3D( '', #177, #178, #179 );
#130 = SURFACE_SIDE_STYLE( '', ( #180 ) );
#131 = EDGE_LOOP( '', ( #181 ) );
#132 = EDGE_LOOP( '', ( #182 ) );
#133 = AXIS2_PLACEMENT_3D( '', #183, #184, #185 );
#134 = SURFACE_SIDE_STYLE( '', ( #186 ) );
#135 = EDGE_LOOP( '', ( #187, #188, #189, #190 ) );
#136 = AXIS2_PLACEMENT_3D( '', #191, #192, #193 );
#137 = SURFACE_SIDE_STYLE( '', ( #194 ) );
#138 = EDGE_LOOP( '', ( #195 ) );
#139 = EDGE_LOOP( '', ( #196 ) );
#140 = AXIS2_PLACEMENT_3D( '', #197, #198, #199 );
#141 = SURFACE_SIDE_STYLE( '', ( #200 ) );
#142 = EDGE_LOOP( '', ( #201, #202, #203, #204 ) );
#143 = AXIS2_PLACEMENT_3D( '', #205, #206, #207 );
#144 = SURFACE_SIDE_STYLE( '', ( #208 ) );
#145 = EDGE_LOOP( '', ( #209, #210, #211, #212 ) );
#146 = AXIS2_PLACEMENT_3D( '', #213, #214, #215 );
#147 = SURFACE_SIDE_STYLE( '', ( #216 ) );
#148 = EDGE_LOOP( '', ( #217, #218, #219, #220 ) );
#149 = AXIS2_PLACEMENT_3D( '', #221, #222, #223 );
#150 = SURFACE_SIDE_STYLE( '', ( #224 ) );
#151 = EDGE_LOOP( '', ( #225 ) );
#152 = EDGE_LOOP( '', ( #226 ) );
#153 = AXIS2_PLACEMENT_3D( '', #227, #228, #229 );
#154 = SURFACE_SIDE_STYLE( '', ( #230 ) );
#155 = EDGE_LOOP( '', ( #231, #232, #233, #234 ) );
#156 = AXIS2_PLACEMENT_3D( '', #235, #236, #237 );
#157 = SURFACE_SIDE_STYLE( '', ( #238 ) );
#158 = EDGE_LOOP( '', ( #239, #240, #241, #242 ) );
#159 = AXIS2_PLACEMENT_3D( '', #243, #244, #245 );
#160 = SURFACE_SIDE_STYLE( '', ( #246 ) );
#161 = EDGE_LOOP( '', ( #247, #248, #249, #250, #251, #252 ) );
#162 = AXIS2_PLACEMENT_3D( '', #253, #254, #255 );
#164 = SURFACE_STYLE_FILL_AREA( #256 );
#165 = ORIENTED_EDGE( '', *, *, #257, .F. );
#166 = ORIENTED_EDGE( '', *, *, #258, .T. );
#167 = ORIENTED_EDGE( '', *, *, #259, .T. );
#168 = ORIENTED_EDGE( '', *, *, #260, .T. );
#169 = ORIENTED_EDGE( '', *, *, #261, .T. );
#170 = ORIENTED_EDGE( '', *, *, #262, .T. );
#171 = ORIENTED_EDGE( '', *, *, #263, .T. );
#172 = CARTESIAN_POINT( '', ( -8.55061054965146E-16, 0.000000000000000, 0.000000000000000 ) );
#173 = DIRECTION( '', ( 1.00000000000000, 0.000000000000000, -0.000000000000000 ) );
#174 = DIRECTION( '', ( -0.000000000000000, 0.000000000000000, -1.00000000000000 ) );
#175 = SURFACE_STYLE_FILL_AREA( #264 );
#176 = ORIENTED_EDGE( '', *, *, #265, .T. );
#177 = CARTESIAN_POINT( '', ( 12.0000000000000, 12.5324424037399, 0.000000000000000 ) );
#178 = DIRECTION( '', ( -1.00000000000000, 0.000000000000000, 0.000000000000000 ) );
#179 = DIRECTION( '', ( 0.000000000000000, 0.000000000000000, 1.00000000000000 ) );
#180 = SURFACE_STYLE_FILL_AREA( #266 );
#181 = ORIENTED_EDGE( '', *, *, #267, .F. );
#182 = ORIENTED_EDGE( '', *, *, #268, .T. );
#183 = CARTESIAN_POINT( '', ( 0.499753280182863, 0.000000000000000, 0.000000000000000 ) );
#184 = DIRECTION( '', ( -1.00000000000000, 0.000000000000000, -0.000000000000000 ) );
#185 = DIRECTION( '', ( 0.000000000000000, 0.000000000000000, 1.00000000000000 ) );
#186 = SURFACE_STYLE_FILL_AREA( #269 );
#187 = ORIENTED_EDGE( '', *, *, #258, .F. );
#188 = ORIENTED_EDGE( '', *, *, #270, .F. );
#189 = ORIENTED_EDGE( '', *, *, #271, .T. );
#190 = ORIENTED_EDGE( '', *, *, #272, .T. );
#191 = CARTESIAN_POINT( '', ( 6.00000000000000, 3.46410161513775, 6.00000000000000 ) );
#192 = DIRECTION( '', ( 0.000000000000000, 0.000000000000000, -1.00000000000000 ) );
#193 = DIRECTION( '', ( -1.00000000000000, 0.000000000000000, 0.000000000000000 ) );
#194 = SURFACE_STYLE_FILL_AREA( #273 );
#195 = ORIENTED_EDGE( '', *, *, #268, .F. );
#196 = ORIENTED_EDGE( '', *, *, #257, .T. );
#197 = CARTESIAN_POINT( '', ( -1.73472347597681E-15, 0.000000000000000, 0.000000000000000 ) );
#198 = DIRECTION( '', ( 1.00000000000000, -0.000000000000000, -0.000000000000000 ) );
#199 = DIRECTION( '', ( -0.000000000000000, 0.000000000000000, -1.00000000000000 ) );
#200 = SURFACE_STYLE_FILL_AREA( #274 );
#201 = ORIENTED_EDGE( '', *, *, #260, .F. );
#202 = ORIENTED_EDGE( '', *, *, #275, .F. );
#203 = ORIENTED_EDGE( '', *, *, #276, .T. );
#204 = ORIENTED_EDGE( '', *, *, #277, .T. );
#205 = CARTESIAN_POINT( '', ( 6.00000000000000, -6.92820323027551, 0.000000000000000 ) );
#206 = DIRECTION( '', ( -0.000000000000000, 0.866025403784439, 0.500000000000000 ) );
#207 = DIRECTION( '', ( 0.000000000000000, -0.500000000000000, 0.866025403784439 ) );
#208 = SURFACE_STYLE_FILL_AREA( #278 );
#209 = ORIENTED_EDGE( '', *, *, #259, .F. );
#210 = ORIENTED_EDGE( '', *, *, #272, .F. );
#211 = ORIENTED_EDGE( '', *, *, #279, .T. );
#212 = ORIENTED_EDGE( '', *, *, #275, .T. );
#213 = CARTESIAN_POINT( '', ( 6.00000000000000, -3.46410161513775, 6.00000000000000 ) );
#214 = DIRECTION( '', ( 0.000000000000000, 0.866025403784439, -0.500000000000000 ) );
#215 = DIRECTION( '', ( 0.000000000000000, 0.500000000000000, 0.866025403784439 ) );
#216 = SURFACE_STYLE_FILL_AREA( #280 );
#217 = ORIENTED_EDGE( '', *, *, #263, .F. );
#218 = ORIENTED_EDGE( '', *, *, #281, .F. );
#219 = ORIENTED_EDGE( '', *, *, #282, .T. );
#220 = ORIENTED_EDGE( '', *, *, #270, .T. );
#221 = CARTESIAN_POINT( '', ( 6.00000000000000, 6.92820323027551, 0.000000000000000 ) );
#222 = DIRECTION( '', ( 0.000000000000000, -0.866025403784439, -0.500000000000000 ) );
#223 = DIRECTION( '', ( 0.000000000000000, 0.500000000000000, -0.866025403784439 ) );
#224 = SURFACE_STYLE_FILL_AREA( #283 );
#225 = ORIENTED_EDGE( '', *, *, #265, .F. );
#226 = ORIENTED_EDGE( '', *, *, #267, .T. );
#227 = CARTESIAN_POINT( '', ( 11.5002467198171, 0.000000000000000, 0.000000000000000 ) );
#228 = DIRECTION( '', ( -1.00000000000000, 0.000000000000000, -0.000000000000000 ) );
#229 = DIRECTION( '', ( 0.000000000000000, 0.000000000000000, 1.00000000000000 ) );
#230 = SURFACE_STYLE_FILL_AREA( #284 );
#231 = ORIENTED_EDGE( '', *, *, #261, .F. );
#232 = ORIENTED_EDGE( '', *, *, #277, .F. );
#233 = ORIENTED_EDGE( '', *, *, #285, .T. );
#234 = ORIENTED_EDGE( '', *, *, #286, .T. );
#235 = CARTESIAN_POINT( '', ( 6.00000000000000, -3.46410161513775, -6.00000000000000 ) );
#236 = DIRECTION( '', ( 0.000000000000000, 0.000000000000000, 1.00000000000000 ) );
#237 = DIRECTION( '', ( 1.00000000000000, 0.000000000000000, -0.000000000000000 ) );
#238 = SURFACE_STYLE_FILL_AREA( #287 );
#239 = ORIENTED_EDGE( '', *, *, #262, .F. );
#240 = ORIENTED_EDGE( '', *, *, #286, .F. );
#241 = ORIENTED_EDGE( '', *, *, #288, .T. );
#242 = ORIENTED_EDGE( '', *, *, #281, .T. );
#243 = CARTESIAN_POINT( '', ( 6.00000000000000, 3.46410161513775, -6.00000000000000 ) );
#244 = DIRECTION( '', ( 0.000000000000000, -0.866025403784439, 0.500000000000000 ) );
#245 = DIRECTION( '', ( 0.000000000000000, -0.500000000000000, -0.866025403784439 ) );
#246 = SURFACE_STYLE_FILL_AREA( #289 );
#247 = ORIENTED_EDGE( '', *, *, #271, .F. );
#248 = ORIENTED_EDGE( '', *, *, #282, .F. );
#249 = ORIENTED_EDGE( '', *, *, #288, .F. );
#250 = ORIENTED_EDGE( '', *, *, #285, .F. );
#251 = ORIENTED_EDGE( '', *, *, #276, .F. );
#252 = ORIENTED_EDGE( '', *, *, #279, .F. );
#253 = CARTESIAN_POINT( '', ( 6.00000000000000, 0.000000000000000, 0.000000000000000 ) );
#254 = DIRECTION( '', ( 1.00000000000000, 0.000000000000000, 0.000000000000000 ) );
#255 = DIRECTION( '', ( 0.000000000000000, 0.000000000000000, -1.00000000000000 ) );
#256 = FILL_AREA_STYLE( '', ( #290 ) );
#257 = EDGE_CURVE( '', #291, #291, #292, .T. );
#258 = EDGE_CURVE( '', #293, #294, #295, .T. );
#259 = EDGE_CURVE( '', #294, #296, #297, .T. );
#260 = EDGE_CURVE( '', #296, #298, #299, .T. );
#261 = EDGE_CURVE( '', #298, #300, #301, .T. );
#262 = EDGE_CURVE( '', #300, #302, #303, .T. );
#263 = EDGE_CURVE( '', #302, #293, #304, .T. );
#264 = FILL_AREA_STYLE( '', ( #305 ) );
#265 = EDGE_CURVE( '', #306, #306, #307, .T. );
#266 = FILL_AREA_STYLE( '', ( #308 ) );
#267 = EDGE_CURVE( '', #309, #309, #310, .T. );
#268 = EDGE_CURVE( '', #311, #311, #312, .T. );
#269 = FILL_AREA_STYLE( '', ( #313 ) );
#270 = EDGE_CURVE( '', #314, #293, #315, .T. );
#271 = EDGE_CURVE( '', #314, #316, #317, .T. );
#272 = EDGE_CURVE( '', #316, #294, #318, .T. );
#273 = FILL_AREA_STYLE( '', ( #319 ) );
#274 = FILL_AREA_STYLE( '', ( #320 ) );
#275 = EDGE_CURVE( '', #321, #296, #322, .T. );
#276 = EDGE_CURVE( '', #321, #323, #324, .T. );
#277 = EDGE_CURVE( '', #323, #298, #325, .T. );
#278 = FILL_AREA_STYLE( '', ( #326 ) );
#279 = EDGE_CURVE( '', #316, #321, #327, .T. );
#280 = FILL_AREA_STYLE( '', ( #328 ) );
#281 = EDGE_CURVE( '', #329, #302, #330, .T. );
#282 = EDGE_CURVE( '', #329, #314, #331, .T. );
#283 = FILL_AREA_STYLE( '', ( #332 ) );
#284 = FILL_AREA_STYLE( '', ( #333 ) );
#285 = EDGE_CURVE( '', #323, #334, #335, .T. );
#286 = EDGE_CURVE( '', #334, #300, #336, .T. );
#287 = FILL_AREA_STYLE( '', ( #337 ) );
#288 = EDGE_CURVE( '', #334, #329, #338, .T. );
#289 = FILL_AREA_STYLE( '', ( #339 ) );
#290 = FILL_AREA_STYLE_COLOUR( '', #340 );
#291 = VERTEX_POINT( '', #341 );
#292 = CIRCLE( '', #342, 12.9095575963000 );
#293 = VERTEX_POINT( '', #343 );
#294 = VERTEX_POINT( '', #344 );
#295 = LINE( '', #345, #346 );
#296 = VERTEX_POINT( '', #347 );
#297 = LINE( '', #348, #349 );
#298 = VERTEX_POINT( '', #350 );
#299 = LINE( '', #351, #352 );
#300 = VERTEX_POINT( '', #353 );
#301 = LINE( '', #354, #355 );
#302 = VERTEX_POINT( '', #356 );
#303 = LINE( '', #357, #358 );
#304 = LINE( '', #359, #360 );
#305 = FILL_AREA_STYLE_COLOUR( '', #361 );
#306 = VERTEX_POINT( '', #362 );
#307 = CIRCLE( '', #363, 12.5324424037000 );
#308 = FILL_AREA_STYLE_COLOUR( '', #364 );
#309 = VERTEX_POINT( '', #365 );
#310 = CIRCLE( '', #366, 13.0481477833000 );
#311 = VERTEX_POINT( '', #367 );
#312 = CIRCLE( '', #368, 13.3938522167000 );
#313 = FILL_AREA_STYLE_COLOUR( '', #369 );
#314 = VERTEX_POINT( '', #370 );
#315 = LINE( '', #371, #372 );
#316 = VERTEX_POINT( '', #373 );
#317 = LINE( '', #374, #375 );
#318 = LINE( '', #376, #377 );
#319 = FILL_AREA_STYLE_COLOUR( '', #378 );
#320 = FILL_AREA_STYLE_COLOUR( '', #379 );
#321 = VERTEX_POINT( '', #380 );
#322 = LINE( '', #381, #382 );
#323 = VERTEX_POINT( '', #383 );
#324 = LINE( '', #384, #385 );
#325 = LINE( '', #386, #387 );
#326 = FILL_AREA_STYLE_COLOUR( '', #388 );
#327 = LINE( '', #389, #390 );
#328 = FILL_AREA_STYLE_COLOUR( '', #391 );
#329 = VERTEX_POINT( '', #392 );
#330 = LINE( '', #393, #394 );
#331 = LINE( '', #395, #396 );
#332 = FILL_AREA_STYLE_COLOUR( '', #397 );
#333 = FILL_AREA_STYLE_COLOUR( '', #398 );
#334 = VERTEX_POINT( '', #399 );
#335 = LINE( '', #400, #401 );
#336 = LINE( '', #402, #403 );
#337 = FILL_AREA_STYLE_COLOUR( '', #404 );
#338 = LINE( '', #405, #406 );
#339 = FILL_AREA_STYLE_COLOUR( '', #407 );
#340 = COLOUR_RGB( '', 0.689999997600000, 0.689999997600000, 0.689999997600000 );
#341 = CARTESIAN_POINT( '', ( -1.73472347597681E-15, 0.000000000000000, -12.9095575962601 ) );
#342 = AXIS2_PLACEMENT_3D( '', #408, #409, #410 );
#343 = CARTESIAN_POINT( '', ( -8.55061054965146E-16, 3.46410161513776, 6.00000000000000 ) );
#344 = CARTESIAN_POINT( '', ( 0.000000000000000, -3.46410161513775, 6.00000000000000 ) );
#345 = CARTESIAN_POINT( '', ( 0.000000000000000, 3.46410161513775, 6.00000000000000 ) );
#346 = VECTOR( '', #411, 1000.00000000000 );
#347 = CARTESIAN_POINT( '', ( 0.000000000000000, -6.92820323027551, 0.000000000000000 ) );
#348 = CARTESIAN_POINT( '', ( 0.000000000000000, -3.46410161513775, 6.00000000000000 ) );
#349 = VECTOR( '', #412, 1000.00000000000 );
#350 = CARTESIAN_POINT( '', ( 0.000000000000000, -3.46410161513775, -6.00000000000000 ) );
#351 = CARTESIAN_POINT( '', ( 0.000000000000000, -6.92820323027551, 0.000000000000000 ) );
#352 = VECTOR( '', #413, 1000.00000000000 );
#353 = CARTESIAN_POINT( '', ( 0.000000000000000, 3.46410161513775, -6.00000000000000 ) );
#354 = CARTESIAN_POINT( '', ( 0.000000000000000, -3.46410161513775, -6.00000000000000 ) );
#355 = VECTOR( '', #414, 1000.00000000000 );
#356 = CARTESIAN_POINT( '', ( 0.000000000000000, 6.92820323027551, 0.000000000000000 ) );
#357 = CARTESIAN_POINT( '', ( 0.000000000000000, 3.46410161513775, -6.00000000000000 ) );
#358 = VECTOR( '', #415, 1000.00000000000 );
#359 = CARTESIAN_POINT( '', ( 0.000000000000000, 6.92820323027551, 0.000000000000000 ) );
#360 = VECTOR( '', #416, 1000.00000000000 );
#361 = COLOUR_RGB( '', 0.689999997600000, 0.689999997600000, 0.689999997600000 );
#362 = CARTESIAN_POINT( '', ( 12.0000000000000, 0.000000000000000, -12.5324424037399 ) );
#363 = AXIS2_PLACEMENT_3D( '', #417, #418, #419 );
#364 = COLOUR_RGB( '', 0.689999997600000, 0.689999997600000, 0.689999997600000 );
#365 = CARTESIAN_POINT( '', ( 11.5002467198171, 0.000000000000000, -13.0481477832790 ) );
#366 = AXIS2_PLACEMENT_3D( '', #420, #421, #422 );
#367 = CARTESIAN_POINT( '', ( 0.499753280182863, 0.000000000000000, -13.3938522167210 ) );
#368 = AXIS2_PLACEMENT_3D( '', #423, #424, #425 );
#369 = COLOUR_RGB( '', 0.689999997600000, 0.689999997600000, 0.689999997600000 );
#370 = CARTESIAN_POINT( '', ( 6.00000000000000, 3.46410161513775, 6.00000000000000 ) );
#371 = CARTESIAN_POINT( '', ( 6.00000000000000, 3.46410161513775, 6.00000000000000 ) );
#372 = VECTOR( '', #426, 1000.00000000000 );
#373 = CARTESIAN_POINT( '', ( 6.00000000000000, -3.46410161513775, 6.00000000000000 ) );
#374 = CARTESIAN_POINT( '', ( 6.00000000000000, 3.46410161513775, 6.00000000000000 ) );
#375 = VECTOR( '', #427, 1000.00000000000 );
#376 = CARTESIAN_POINT( '', ( 6.00000000000000, -3.46410161513775, 6.00000000000000 ) );
#377 = VECTOR( '', #428, 1000.00000000000 );
#378 = COLOUR_RGB( '', 0.689999997600000, 0.689999997600000, 0.689999997600000 );
#379 = COLOUR_RGB( '', 0.689999997600000, 0.689999997600000, 0.689999997600000 );
#380 = CARTESIAN_POINT( '', ( 6.00000000000000, -6.92820323027551, 0.000000000000000 ) );
#381 = CARTESIAN_POINT( '', ( 6.00000000000000, -6.92820323027551, 0.000000000000000 ) );
#382 = VECTOR( '', #429, 1000.00000000000 );
#383 = CARTESIAN_POINT( '', ( 6.00000000000000, -3.46410161513775, -6.00000000000000 ) );
#384 = CARTESIAN_POINT( '', ( 6.00000000000000, -6.92820323027551, 0.000000000000000 ) );
#385 = VECTOR( '', #430, 1000.00000000000 );
#386 = CARTESIAN_POINT( '', ( 6.00000000000000, -3.46410161513775, -6.00000000000000 ) );
#387 = VECTOR( '', #431, 1000.00000000000 );
#388 = COLOUR_RGB( '', 0.689999997600000, 0.689999997600000, 0.689999997600000 );
#389 = CARTESIAN_POINT( '', ( 6.00000000000000, -3.46410161513775, 6.00000000000000 ) );
#390 = VECTOR( '', #432, 1000.00000000000 );
#391 = COLOUR_RGB( '', 0.689999997600000, 0.689999997600000, 0.689999997600000 );
#392 = CARTESIAN_POINT( '', ( 6.00000000000000, 6.92820323027551, 0.000000000000000 ) );
#393 = CARTESIAN_POINT( '', ( 6.00000000000000, 6.92820323027551, 0.000000000000000 ) );
#394 = VECTOR( '', #433, 1000.00000000000 );
#395 = CARTESIAN_POINT( '', ( 6.00000000000000, 6.92820323027551, 0.000000000000000 ) );
#396 = VECTOR( '', #434, 1000.00000000000 );
#397 = COLOUR_RGB( '', 0.689999997600000, 0.689999997600000, 0.689999997600000 );
#398 = COLOUR_RGB( '', 0.689999997600000, 0.689999997600000, 0.689999997600000 );
#399 = CARTESIAN_POINT( '', ( 6.00000000000000, 3.46410161513775, -6.00000000000000 ) );
#400 = CARTESIAN_POINT( '', ( 6.00000000000000, -3.46410161513775, -6.00000000000000 ) );
#401 = VECTOR( '', #435, 1000.00000000000 );
#402 = CARTESIAN_POINT( '', ( 6.00000000000000, 3.46410161513775, -6.00000000000000 ) );
#403 = VECTOR( '', #436, 1000.00000000000 );
#404 = COLOUR_RGB( '', 0.689999997600000, 0.689999997600000, 0.689999997600000 );
#405 = CARTESIAN_POINT( '', ( 6.00000000000000, 3.46410161513775, -6.00000000000000 ) );
#406 = VECTOR( '', #437, 1000.00000000000 );
#407 = COLOUR_RGB( '', 0.689999997600000, 0.689999997600000, 0.689999997600000 );
#408 = CARTESIAN_POINT( '', ( -1.73472347597681E-15, 0.000000000000000, 0.000000000000000 ) );
#409 = DIRECTION( '', ( 1.00000000000000, 0.000000000000000, -0.000000000000000 ) );
#410 = DIRECTION( '', ( -0.000000000000000, 0.000000000000000, -1.00000000000000 ) );
#411 = DIRECTION( '', ( 0.000000000000000, -1.00000000000000, 0.000000000000000 ) );
#412 = DIRECTION( '', ( 0.000000000000000, -0.500000000000000, -0.866025403784439 ) );
#413 = DIRECTION( '', ( 0.000000000000000, 0.500000000000000, -0.866025403784439 ) );
#414 = DIRECTION( '', ( 0.000000000000000, 1.00000000000000, 0.000000000000000 ) );
#415 = DIRECTION( '', ( 0.000000000000000, 0.500000000000000, 0.866025403784439 ) );
#416 = DIRECTION( '', ( 0.000000000000000, -0.500000000000000, 0.866025403784439 ) );
#417 = CARTESIAN_POINT( '', ( 12.0000000000000, 0.000000000000000, 0.000000000000000 ) );
#418 = DIRECTION( '', ( 1.00000000000000, 0.000000000000000, -0.000000000000000 ) );
#419 = DIRECTION( '', ( -0.000000000000000, 0.000000000000000, -1.00000000000000 ) );
#420 = CARTESIAN_POINT( '', ( 11.5002467198171, 0.000000000000000, 0.000000000000000 ) );
#421 = DIRECTION( '', ( 1.00000000000000, 0.000000000000000, -0.000000000000000 ) );
#422 = DIRECTION( '', ( -0.000000000000000, 0.000000000000000, -1.00000000000000 ) );
#423 = CARTESIAN_POINT( '', ( 0.499753280182863, 0.000000000000000, 0.000000000000000 ) );
#424 = DIRECTION( '', ( 1.00000000000000, 0.000000000000000, -0.000000000000000 ) );
#425 = DIRECTION( '', ( -0.000000000000000, 0.000000000000000, -1.00000000000000 ) );
#426 = DIRECTION( '', ( -1.00000000000000, -0.000000000000000, -0.000000000000000 ) );
#427 = DIRECTION( '', ( 0.000000000000000, -1.00000000000000, 0.000000000000000 ) );
#428 = DIRECTION( '', ( -1.00000000000000, -0.000000000000000, -0.000000000000000 ) );
#429 = DIRECTION( '', ( -1.00000000000000, -0.000000000000000, -0.000000000000000 ) );
#430 = DIRECTION( '', ( 0.000000000000000, 0.500000000000000, -0.866025403784439 ) );
#431 = DIRECTION( '', ( -1.00000000000000, -0.000000000000000, -0.000000000000000 ) );
#432 = DIRECTION( '', ( 0.000000000000000, -0.500000000000000, -0.866025403784439 ) );
#433 = DIRECTION( '', ( -1.00000000000000, -0.000000000000000, -0.000000000000000 ) );
#434 = DIRECTION( '', ( 0.000000000000000, -0.500000000000000, 0.866025403784439 ) );
#435 = DIRECTION( '', ( 0.000000000000000, 1.00000000000000, 0.000000000000000 ) );
#436 = DIRECTION( '', ( -1.00000000000000, -0.000000000000000, -0.000000000000000 ) );
#437 = DIRECTION( '', ( 0.000000000000000, 0.500000000000000, 0.866025403784439 ) );
ENDSEC;
END-ISO-10303-21;
