ISO-10303-21;
HEADER;
FILE_DESCRIPTION( ( 'STEP AP214' ), '1' );
FILE_NAME( '//goodhand-server/Shared Folders/GoodHand Data/Kipp CAD/K0163/K0163.0280X28.stp', '2020-11-26T10:29:29', ( '' ), ( '' ), ' ', 'PARTsolutions', ' ' );
FILE_SCHEMA( ( 'AUTOMOTIVE_DESIGN { 1 0 10303 214 1 1 1 1 }' ) );
ENDSEC;
DATA;
#1 = MECHANICAL_DESIGN_GEOMETRIC_PRESENTATION_REPRESENTATION( ' ', ( #10, #11, #12, #13, #14, #15, #16, #17, #18, #19, #20, #21, #22, #23, #24, #25 ), #6 );
#2 = PRODUCT_DEFINITION_CONTEXT( '', #26, 'design' );
#3 = APPLICATION_PROTOCOL_DEFINITION( 'international standard', 'automotive_design', 2001, #26 );
#4 = PRODUCT_CATEGORY_RELATIONSHIP( 'NONE', 'NONE', #27, #28 );
#5 = SHAPE_DEFINITION_REPRESENTATION( #29, #30 );
#6 =  ( GEOMETRIC_REPRESENTATION_CONTEXT( 3 )GLOBAL_UNCERTAINTY_ASSIGNED_CONTEXT( ( #33 ) )GLOBAL_UNIT_ASSIGNED_CONTEXT( ( #35, #36, #37 ) )REPRESENTATION_CONTEXT( 'NONE', 'WORKSPACE' ) );
#10 = STYLED_ITEM( '', ( #39 ), #40 );
#11 = STYLED_ITEM( '', ( #41 ), #42 );
#12 = STYLED_ITEM( '', ( #43 ), #44 );
#13 = STYLED_ITEM( '', ( #45 ), #46 );
#14 = STYLED_ITEM( '', ( #47 ), #48 );
#15 = STYLED_ITEM( '', ( #49 ), #50 );
#16 = STYLED_ITEM( '', ( #51 ), #52 );
#17 = STYLED_ITEM( '', ( #53 ), #54 );
#18 = STYLED_ITEM( '', ( #55 ), #56 );
#19 = STYLED_ITEM( '', ( #57 ), #58 );
#20 = STYLED_ITEM( '', ( #59 ), #60 );
#21 = STYLED_ITEM( '', ( #61 ), #62 );
#22 = STYLED_ITEM( '', ( #63 ), #64 );
#23 = STYLED_ITEM( '', ( #65 ), #66 );
#24 = STYLED_ITEM( '', ( #67 ), #68 );
#25 = STYLED_ITEM( '', ( #69 ), #70 );
#26 = APPLICATION_CONTEXT( 'core data for automotive mechanical design processes' );
#27 = PRODUCT_CATEGORY( 'part', 'NONE' );
#28 = PRODUCT_RELATED_PRODUCT_CATEGORY( 'detail', ' ', ( #71 ) );
#29 = PRODUCT_DEFINITION_SHAPE( 'NONE', 'NONE', #72 );
#30 = ADVANCED_BREP_SHAPE_REPRESENTATION( '_K0163.0280X28', ( #73, #74 ), #6 );
#33 = UNCERTAINTY_MEASURE_WITH_UNIT( LENGTH_MEASURE( 0.00100000000000000 ), #35, '', '' );
#35 =  ( CONVERSION_BASED_UNIT( 'MILLIMETRE', #77 )LENGTH_UNIT(  )NAMED_UNIT( #80 ) );
#36 =  ( NAMED_UNIT( #82 )PLANE_ANGLE_UNIT(  )SI_UNIT( $, .RADIAN. ) );
#37 =  ( NAMED_UNIT( #82 )SI_UNIT( $, .STERADIAN. )SOLID_ANGLE_UNIT(  ) );
#39 = PRESENTATION_STYLE_ASSIGNMENT( ( #88 ) );
#40 = ADVANCED_FACE( '', ( #89, #90 ), #91, .F. );
#41 = PRESENTATION_STYLE_ASSIGNMENT( ( #92 ) );
#42 = ADVANCED_FACE( '', ( #93, #94 ), #95, .F. );
#43 = PRESENTATION_STYLE_ASSIGNMENT( ( #96 ) );
#44 = ADVANCED_FACE( '', ( #97, #98 ), #99, .F. );
#45 = PRESENTATION_STYLE_ASSIGNMENT( ( #100 ) );
#46 = ADVANCED_FACE( '', ( #101, #102, #103 ), #104, .T. );
#47 = PRESENTATION_STYLE_ASSIGNMENT( ( #105 ) );
#48 = ADVANCED_FACE( '', ( #106, #107 ), #108, .F. );
#49 = PRESENTATION_STYLE_ASSIGNMENT( ( #109 ) );
#50 = ADVANCED_FACE( '', ( #110, #111 ), #112, .F. );
#51 = PRESENTATION_STYLE_ASSIGNMENT( ( #113 ) );
#52 = ADVANCED_FACE( '', ( #114, #115 ), #116, .F. );
#53 = PRESENTATION_STYLE_ASSIGNMENT( ( #117 ) );
#54 = ADVANCED_FACE( '', ( #118, #119 ), #120, .T. );
#55 = PRESENTATION_STYLE_ASSIGNMENT( ( #121 ) );
#56 = ADVANCED_FACE( '', ( #122, #123 ), #124, .T. );
#57 = PRESENTATION_STYLE_ASSIGNMENT( ( #125 ) );
#58 = ADVANCED_FACE( '', ( #126, #127 ), #128, .F. );
#59 = PRESENTATION_STYLE_ASSIGNMENT( ( #129 ) );
#60 = ADVANCED_FACE( '', ( #130, #131 ), #132, .T. );
#61 = PRESENTATION_STYLE_ASSIGNMENT( ( #133 ) );
#62 = ADVANCED_FACE( '', ( #134, #135 ), #136, .F. );
#63 = PRESENTATION_STYLE_ASSIGNMENT( ( #137 ) );
#64 = ADVANCED_FACE( '', ( #138, #139 ), #140, .T. );
#65 = PRESENTATION_STYLE_ASSIGNMENT( ( #141 ) );
#66 = ADVANCED_FACE( '', ( #142, #143 ), #144, .F. );
#67 = PRESENTATION_STYLE_ASSIGNMENT( ( #145 ) );
#68 = ADVANCED_FACE( '', ( #146, #147 ), #148, .T. );
#69 = PRESENTATION_STYLE_ASSIGNMENT( ( #149 ) );
#70 = ADVANCED_FACE( '', ( #150, #151 ), #152, .F. );
#71 = PRODUCT( '_K0163.0280X28', '_K0163.0280X28', 'PART-_K0163.0280X28-DESC', ( #153 ) );
#72 = PRODUCT_DEFINITION( 'NONE', 'NONE', #154, #2 );
#73 = MANIFOLD_SOLID_BREP( '_K0163.0280X28', #155 );
#74 = AXIS2_PLACEMENT_3D( '', #156, #157, #158 );
#77 = LENGTH_MEASURE_WITH_UNIT( LENGTH_MEASURE( 1.00000000000000 ), #159 );
#80 = DIMENSIONAL_EXPONENTS( 1.00000000000000, 0.000000000000000, 0.000000000000000, 0.000000000000000, 0.000000000000000, 0.000000000000000, 0.000000000000000 );
#82 = DIMENSIONAL_EXPONENTS( 0.000000000000000, 0.000000000000000, 0.000000000000000, 0.000000000000000, 0.000000000000000, 0.000000000000000, 0.000000000000000 );
#88 = SURFACE_STYLE_USAGE( .BOTH., #160 );
#89 = FACE_OUTER_BOUND( '', #161, .T. );
#90 = FACE_BOUND( '', #162, .T. );
#91 = CONICAL_SURFACE( '', #163, 26.8997054486000, 1.49402443550000 );
#92 = SURFACE_STYLE_USAGE( .BOTH., #164 );
#93 = FACE_OUTER_BOUND( '', #165, .T. );
#94 = FACE_BOUND( '', #166, .T. );
#95 = CONICAL_SURFACE( '', #167, 120.500000000000, 0.385271953700000 );
#96 = SURFACE_STYLE_USAGE( .BOTH., #168 );
#97 = FACE_BOUND( '', #169, .T. );
#98 = FACE_OUTER_BOUND( '', #170, .T. );
#99 = PLANE( '', #171 );
#100 = SURFACE_STYLE_USAGE( .BOTH., #172 );
#101 = FACE_BOUND( '', #173, .T. );
#102 = FACE_OUTER_BOUND( '', #174, .T. );
#103 = FACE_OUTER_BOUND( '', #175, .T. );
#104 = TOROIDAL_SURFACE( '', #176, 127.500000000000, 12.5000000000000 );
#105 = SURFACE_STYLE_USAGE( .BOTH., #177 );
#106 = FACE_OUTER_BOUND( '', #178, .T. );
#107 = FACE_OUTER_BOUND( '', #179, .T. );
#108 = TOROIDAL_SURFACE( '', #180, 26.8000000000000, 1.30000000000000 );
#109 = SURFACE_STYLE_USAGE( .BOTH., #181 );
#110 = FACE_OUTER_BOUND( '', #182, .T. );
#111 = FACE_BOUND( '', #183, .T. );
#112 = PLANE( '', #184 );
#113 = SURFACE_STYLE_USAGE( .BOTH., #185 );
#114 = FACE_BOUND( '', #186, .T. );
#115 = FACE_OUTER_BOUND( '', #187, .T. );
#116 = PLANE( '', #188 );
#117 = SURFACE_STYLE_USAGE( .BOTH., #189 );
#118 = FACE_OUTER_BOUND( '', #190, .T. );
#119 = FACE_OUTER_BOUND( '', #191, .T. );
#120 = TOROIDAL_SURFACE( '', #192, 113.500000000000, 3.50000000000000 );
#121 = SURFACE_STYLE_USAGE( .BOTH., #193 );
#122 = FACE_BOUND( '', #194, .T. );
#123 = FACE_OUTER_BOUND( '', #195, .T. );
#124 = CONICAL_SURFACE( '', #196, 110.000000000000, 1.49402443550000 );
#125 = SURFACE_STYLE_USAGE( .BOTH., #197 );
#126 = FACE_OUTER_BOUND( '', #198, .T. );
#127 = FACE_OUTER_BOUND( '', #199, .T. );
#128 = TOROIDAL_SURFACE( '', #200, 26.8000000000000, 1.30000000000000 );
#129 = SURFACE_STYLE_USAGE( .BOTH., #201 );
#130 = FACE_OUTER_BOUND( '', #202, .T. );
#131 = FACE_OUTER_BOUND( '', #203, .T. );
#132 = TOROIDAL_SURFACE( '', #204, 113.500000000000, 3.50000000000000 );
#133 = SURFACE_STYLE_USAGE( .BOTH., #205 );
#134 = FACE_BOUND( '', #206, .T. );
#135 = FACE_OUTER_BOUND( '', #207, .T. );
#136 = CONICAL_SURFACE( '', #208, 121.500000000000, 0.385271953700000 );
#137 = SURFACE_STYLE_USAGE( .BOTH., #209 );
#138 = FACE_OUTER_BOUND( '', #210, .T. );
#139 = FACE_OUTER_BOUND( '', #211, .T. );
#140 = CYLINDRICAL_SURFACE( '', #212, 25.5000000000000 );
#141 = SURFACE_STYLE_USAGE( .BOTH., #213 );
#142 = FACE_OUTER_BOUND( '', #214, .T. );
#143 = FACE_OUTER_BOUND( '', #215, .T. );
#144 = CYLINDRICAL_SURFACE( '', #216, 14.0000000000000 );
#145 = SURFACE_STYLE_USAGE( .BOTH., #217 );
#146 = FACE_OUTER_BOUND( '', #218, .T. );
#147 = FACE_OUTER_BOUND( '', #219, .T. );
#148 = CYLINDRICAL_SURFACE( '', #220, 25.5000000000000 );
#149 = SURFACE_STYLE_USAGE( .BOTH., #221 );
#150 = FACE_OUTER_BOUND( '', #222, .T. );
#151 = FACE_BOUND( '', #223, .T. );
#152 = PLANE( '', #224 );
#153 = PRODUCT_CONTEXT( '', #26, 'mechanical' );
#154 = PRODUCT_DEFINITION_FORMATION_WITH_SPECIFIED_SOURCE( ' ', 'NONE', #71, .NOT_KNOWN. );
#155 = CLOSED_SHELL( '', ( #66, #70, #68, #48, #40, #60, #50, #42, #46, #62, #52, #54, #56, #58, #64, #44 ) );
#156 = CARTESIAN_POINT( '', ( 0.000000000000000, 0.000000000000000, 0.000000000000000 ) );
#157 = DIRECTION( '', ( 0.000000000000000, 0.000000000000000, 1.00000000000000 ) );
#158 = DIRECTION( '', ( 1.00000000000000, 0.000000000000000, 0.000000000000000 ) );
#159 =  ( LENGTH_UNIT(  )NAMED_UNIT( #80 )SI_UNIT( .MILLI., .METRE. ) );
#160 = SURFACE_SIDE_STYLE( '', ( #226 ) );
#161 = EDGE_LOOP( '', ( #227 ) );
#162 = EDGE_LOOP( '', ( #228 ) );
#163 = AXIS2_PLACEMENT_3D( '', #229, #230, #231 );
#164 = SURFACE_SIDE_STYLE( '', ( #232 ) );
#165 = EDGE_LOOP( '', ( #233 ) );
#166 = EDGE_LOOP( '', ( #234 ) );
#167 = AXIS2_PLACEMENT_3D( '', #235, #236, #237 );
#168 = SURFACE_SIDE_STYLE( '', ( #238 ) );
#169 = EDGE_LOOP( '', ( #239 ) );
#170 = EDGE_LOOP( '', ( #240 ) );
#171 = AXIS2_PLACEMENT_3D( '', #241, #242, #243 );
#172 = SURFACE_SIDE_STYLE( '', ( #244 ) );
#173 = VERTEX_LOOP( '', #245 );
#174 = EDGE_LOOP( '', ( #246 ) );
#175 = EDGE_LOOP( '', ( #247 ) );
#176 = AXIS2_PLACEMENT_3D( '', #248, #249, #250 );
#177 = SURFACE_SIDE_STYLE( '', ( #251 ) );
#178 = EDGE_LOOP( '', ( #252 ) );
#179 = EDGE_LOOP( '', ( #253 ) );
#180 = AXIS2_PLACEMENT_3D( '', #254, #255, #256 );
#181 = SURFACE_SIDE_STYLE( '', ( #257 ) );
#182 = EDGE_LOOP( '', ( #258 ) );
#183 = EDGE_LOOP( '', ( #259 ) );
#184 = AXIS2_PLACEMENT_3D( '', #260, #261, #262 );
#185 = SURFACE_SIDE_STYLE( '', ( #263 ) );
#186 = EDGE_LOOP( '', ( #264 ) );
#187 = EDGE_LOOP( '', ( #265 ) );
#188 = AXIS2_PLACEMENT_3D( '', #266, #267, #268 );
#189 = SURFACE_SIDE_STYLE( '', ( #269 ) );
#190 = EDGE_LOOP( '', ( #270 ) );
#191 = EDGE_LOOP( '', ( #271 ) );
#192 = AXIS2_PLACEMENT_3D( '', #272, #273, #274 );
#193 = SURFACE_SIDE_STYLE( '', ( #275 ) );
#194 = EDGE_LOOP( '', ( #276 ) );
#195 = EDGE_LOOP( '', ( #277 ) );
#196 = AXIS2_PLACEMENT_3D( '', #278, #279, #280 );
#197 = SURFACE_SIDE_STYLE( '', ( #281 ) );
#198 = EDGE_LOOP( '', ( #282 ) );
#199 = EDGE_LOOP( '', ( #283 ) );
#200 = AXIS2_PLACEMENT_3D( '', #284, #285, #286 );
#201 = SURFACE_SIDE_STYLE( '', ( #287 ) );
#202 = EDGE_LOOP( '', ( #288 ) );
#203 = EDGE_LOOP( '', ( #289 ) );
#204 = AXIS2_PLACEMENT_3D( '', #290, #291, #292 );
#205 = SURFACE_SIDE_STYLE( '', ( #293 ) );
#206 = EDGE_LOOP( '', ( #294 ) );
#207 = EDGE_LOOP( '', ( #295 ) );
#208 = AXIS2_PLACEMENT_3D( '', #296, #297, #298 );
#209 = SURFACE_SIDE_STYLE( '', ( #299 ) );
#210 = EDGE_LOOP( '', ( #300 ) );
#211 = EDGE_LOOP( '', ( #301 ) );
#212 = AXIS2_PLACEMENT_3D( '', #302, #303, #304 );
#213 = SURFACE_SIDE_STYLE( '', ( #305 ) );
#214 = EDGE_LOOP( '', ( #306 ) );
#215 = EDGE_LOOP( '', ( #307 ) );
#216 = AXIS2_PLACEMENT_3D( '', #308, #309, #310 );
#217 = SURFACE_SIDE_STYLE( '', ( #311 ) );
#218 = EDGE_LOOP( '', ( #312 ) );
#219 = EDGE_LOOP( '', ( #313 ) );
#220 = AXIS2_PLACEMENT_3D( '', #314, #315, #316 );
#221 = SURFACE_SIDE_STYLE( '', ( #317 ) );
#222 = EDGE_LOOP( '', ( #318 ) );
#223 = EDGE_LOOP( '', ( #319 ) );
#224 = AXIS2_PLACEMENT_3D( '', #320, #321, #322 );
#226 = SURFACE_STYLE_FILL_AREA( #323 );
#227 = ORIENTED_EDGE( '', *, *, #324, .F. );
#228 = ORIENTED_EDGE( '', *, *, #325, .T. );
#229 = CARTESIAN_POINT( '', ( 24.1076696498885, 0.000000000000000, 0.000000000000000 ) );
#230 = DIRECTION( '', ( 1.00000000000000, -0.000000000000000, 0.000000000000000 ) );
#231 = DIRECTION( '', ( 0.000000000000000, 0.000000000000000, -1.00000000000000 ) );
#232 = SURFACE_STYLE_FILL_AREA( #326 );
#233 = ORIENTED_EDGE( '', *, *, #327, .F. );
#234 = ORIENTED_EDGE( '', *, *, #328, .T. );
#235 = CARTESIAN_POINT( '', ( 34.0000000000000, 0.000000000000000, 0.000000000000000 ) );
#236 = DIRECTION( '', ( 1.00000000000000, -0.000000000000000, 0.000000000000000 ) );
#237 = DIRECTION( '', ( 0.000000000000000, 0.000000000000000, -1.00000000000000 ) );
#238 = SURFACE_STYLE_FILL_AREA( #329 );
#239 = ORIENTED_EDGE( '', *, *, #330, .T. );
#240 = ORIENTED_EDGE( '', *, *, #331, .T. );
#241 = CARTESIAN_POINT( '', ( 0.000000000000000, -25.5000000000000, 0.000000000000000 ) );
#242 = DIRECTION( '', ( 1.00000000000000, 0.000000000000000, 0.000000000000000 ) );
#243 = DIRECTION( '', ( 0.000000000000000, 0.000000000000000, -1.00000000000000 ) );
#244 = SURFACE_STYLE_FILL_AREA( #332 );
#245 = VERTEX_POINT( '', #333 );
#246 = ORIENTED_EDGE( '', *, *, #327, .T. );
#247 = ORIENTED_EDGE( '', *, *, #334, .F. );
#248 = CARTESIAN_POINT( '', ( 25.5000000000000, 0.000000000000000, 0.000000000000000 ) );
#249 = DIRECTION( '', ( -1.00000000000000, 0.000000000000000, 0.000000000000000 ) );
#250 = DIRECTION( '', ( 0.000000000000000, 0.000000000000000, 1.00000000000000 ) );
#251 = SURFACE_STYLE_FILL_AREA( #335 );
#252 = ORIENTED_EDGE( '', *, *, #325, .F. );
#253 = ORIENTED_EDGE( '', *, *, #336, .T. );
#254 = CARTESIAN_POINT( '', ( 25.4038404810405, 0.000000000000000, 0.000000000000000 ) );
#255 = DIRECTION( '', ( -1.00000000000000, 0.000000000000000, 0.000000000000000 ) );
#256 = DIRECTION( '', ( 0.000000000000000, 0.000000000000000, 1.00000000000000 ) );
#257 = SURFACE_STYLE_FILL_AREA( #337 );
#258 = ORIENTED_EDGE( '', *, *, #328, .F. );
#259 = ORIENTED_EDGE( '', *, *, #338, .T. );
#260 = CARTESIAN_POINT( '', ( 34.0000000000000, -113.500000000000, 0.000000000000000 ) );
#261 = DIRECTION( '', ( -1.00000000000000, 0.000000000000000, 0.000000000000000 ) );
#262 = DIRECTION( '', ( 0.000000000000000, 0.000000000000000, 1.00000000000000 ) );
#263 = SURFACE_STYLE_FILL_AREA( #339 );
#264 = ORIENTED_EDGE( '', *, *, #340, .F. );
#265 = ORIENTED_EDGE( '', *, *, #341, .T. );
#266 = CARTESIAN_POINT( '', ( 17.0000000000000, -120.500000000000, 0.000000000000000 ) );
#267 = DIRECTION( '', ( 1.00000000000000, 0.000000000000000, 0.000000000000000 ) );
#268 = DIRECTION( '', ( 0.000000000000000, 0.000000000000000, -1.00000000000000 ) );
#269 = SURFACE_STYLE_FILL_AREA( #342 );
#270 = ORIENTED_EDGE( '', *, *, #340, .T. );
#271 = ORIENTED_EDGE( '', *, *, #343, .F. );
#272 = CARTESIAN_POINT( '', ( 20.5000000000000, 0.000000000000000, 0.000000000000000 ) );
#273 = DIRECTION( '', ( -1.00000000000000, 0.000000000000000, 0.000000000000000 ) );
#274 = DIRECTION( '', ( 0.000000000000000, 0.000000000000000, 1.00000000000000 ) );
#275 = SURFACE_STYLE_FILL_AREA( #344 );
#276 = ORIENTED_EDGE( '', *, *, #345, .F. );
#277 = ORIENTED_EDGE( '', *, *, #343, .T. );
#278 = CARTESIAN_POINT( '', ( 20.5000000000000, 0.000000000000000, 0.000000000000000 ) );
#279 = DIRECTION( '', ( 1.00000000000000, -0.000000000000000, 0.000000000000000 ) );
#280 = DIRECTION( '', ( 0.000000000000000, 0.000000000000000, -1.00000000000000 ) );
#281 = SURFACE_STYLE_FILL_AREA( #346 );
#282 = ORIENTED_EDGE( '', *, *, #347, .F. );
#283 = ORIENTED_EDGE( '', *, *, #345, .T. );
#284 = CARTESIAN_POINT( '', ( 12.7961595189595, 0.000000000000000, 0.000000000000000 ) );
#285 = DIRECTION( '', ( -1.00000000000000, 0.000000000000000, 0.000000000000000 ) );
#286 = DIRECTION( '', ( 0.000000000000000, 0.000000000000000, 1.00000000000000 ) );
#287 = SURFACE_STYLE_FILL_AREA( #348 );
#288 = ORIENTED_EDGE( '', *, *, #324, .T. );
#289 = ORIENTED_EDGE( '', *, *, #338, .F. );
#290 = CARTESIAN_POINT( '', ( 30.5000000000000, 0.000000000000000, 0.000000000000000 ) );
#291 = DIRECTION( '', ( -1.00000000000000, 0.000000000000000, 0.000000000000000 ) );
#292 = DIRECTION( '', ( 0.000000000000000, 0.000000000000000, 1.00000000000000 ) );
#293 = SURFACE_STYLE_FILL_AREA( #349 );
#294 = ORIENTED_EDGE( '', *, *, #341, .F. );
#295 = ORIENTED_EDGE( '', *, *, #334, .T. );
#296 = CARTESIAN_POINT( '', ( 14.5341439002693, 0.000000000000000, 0.000000000000000 ) );
#297 = DIRECTION( '', ( -1.00000000000000, -0.000000000000000, -0.000000000000000 ) );
#298 = DIRECTION( '', ( 0.000000000000000, 0.000000000000000, 1.00000000000000 ) );
#299 = SURFACE_STYLE_FILL_AREA( #350 );
#300 = ORIENTED_EDGE( '', *, *, #331, .F. );
#301 = ORIENTED_EDGE( '', *, *, #347, .T. );
#302 = CARTESIAN_POINT( '', ( 0.000000000000000, 0.000000000000000, 0.000000000000000 ) );
#303 = DIRECTION( '', ( 1.00000000000000, -0.000000000000000, -0.000000000000000 ) );
#304 = DIRECTION( '', ( 0.000000000000000, 0.000000000000000, 1.00000000000000 ) );
#305 = SURFACE_STYLE_FILL_AREA( #351 );
#306 = ORIENTED_EDGE( '', *, *, #330, .F. );
#307 = ORIENTED_EDGE( '', *, *, #352, .T. );
#308 = CARTESIAN_POINT( '', ( 38.0000000000000, 0.000000000000000, 0.000000000000000 ) );
#309 = DIRECTION( '', ( 1.00000000000000, -0.000000000000000, -0.000000000000000 ) );
#310 = DIRECTION( '', ( 0.000000000000000, 0.000000000000000, 1.00000000000000 ) );
#311 = SURFACE_STYLE_FILL_AREA( #353 );
#312 = ORIENTED_EDGE( '', *, *, #336, .F. );
#313 = ORIENTED_EDGE( '', *, *, #354, .T. );
#314 = CARTESIAN_POINT( '', ( 0.000000000000000, 0.000000000000000, 0.000000000000000 ) );
#315 = DIRECTION( '', ( 1.00000000000000, -0.000000000000000, -0.000000000000000 ) );
#316 = DIRECTION( '', ( 0.000000000000000, 0.000000000000000, 1.00000000000000 ) );
#317 = SURFACE_STYLE_FILL_AREA( #355 );
#318 = ORIENTED_EDGE( '', *, *, #354, .F. );
#319 = ORIENTED_EDGE( '', *, *, #352, .F. );
#320 = CARTESIAN_POINT( '', ( 30.0000000000000, 0.000000000000000, 0.000000000000000 ) );
#321 = DIRECTION( '', ( -1.00000000000000, 0.000000000000000, 0.000000000000000 ) );
#322 = DIRECTION( '', ( 0.000000000000000, 0.000000000000000, 1.00000000000000 ) );
#323 = FILL_AREA_STYLE( '', ( #356 ) );
#324 = EDGE_CURVE( '', #357, #357, #358, .T. );
#325 = EDGE_CURVE( '', #359, #359, #360, .T. );
#326 = FILL_AREA_STYLE( '', ( #361 ) );
#327 = EDGE_CURVE( '', #362, #362, #363, .T. );
#328 = EDGE_CURVE( '', #364, #364, #365, .T. );
#329 = FILL_AREA_STYLE( '', ( #366 ) );
#330 = EDGE_CURVE( '', #367, #367, #368, .T. );
#331 = EDGE_CURVE( '', #369, #369, #370, .T. );
#332 = FILL_AREA_STYLE( '', ( #371 ) );
#333 = CARTESIAN_POINT( '', ( 25.5000000000000, 0.000000000000000, 140.000000000000 ) );
#334 = EDGE_CURVE( '', #372, #372, #373, .T. );
#335 = FILL_AREA_STYLE( '', ( #374 ) );
#336 = EDGE_CURVE( '', #375, #375, #376, .T. );
#337 = FILL_AREA_STYLE( '', ( #377 ) );
#338 = EDGE_CURVE( '', #378, #378, #379, .T. );
#339 = FILL_AREA_STYLE( '', ( #380 ) );
#340 = EDGE_CURVE( '', #381, #381, #382, .T. );
#341 = EDGE_CURVE( '', #383, #383, #384, .T. );
#342 = FILL_AREA_STYLE( '', ( #385 ) );
#343 = EDGE_CURVE( '', #386, #386, #387, .T. );
#344 = FILL_AREA_STYLE( '', ( #388 ) );
#345 = EDGE_CURVE( '', #389, #389, #390, .T. );
#346 = FILL_AREA_STYLE( '', ( #391 ) );
#347 = EDGE_CURVE( '', #392, #392, #393, .T. );
#348 = FILL_AREA_STYLE( '', ( #394 ) );
#349 = FILL_AREA_STYLE( '', ( #395 ) );
#350 = FILL_AREA_STYLE( '', ( #396 ) );
#351 = FILL_AREA_STYLE( '', ( #397 ) );
#352 = EDGE_CURVE( '', #398, #398, #399, .F. );
#353 = FILL_AREA_STYLE( '', ( #400 ) );
#354 = EDGE_CURVE( '', #401, #401, #402, .T. );
#355 = FILL_AREA_STYLE( '', ( #403 ) );
#356 = FILL_AREA_STYLE_COLOUR( '', #404 );
#357 = VERTEX_POINT( '', #405 );
#358 = CIRCLE( '', #406, 110.000000000000 );
#359 = VERTEX_POINT( '', #407 );
#360 = CIRCLE( '', #408, 26.8997054486000 );
#361 = FILL_AREA_STYLE_COLOUR( '', #409 );
#362 = VERTEX_POINT( '', #410 );
#363 = CIRCLE( '', #411, 121.500000000000 );
#364 = VERTEX_POINT( '', #412 );
#365 = CIRCLE( '', #413, 120.500000000000 );
#366 = FILL_AREA_STYLE_COLOUR( '', #414 );
#367 = VERTEX_POINT( '', #415 );
#368 = CIRCLE( '', #416, 14.0000000000000 );
#369 = VERTEX_POINT( '', #417 );
#370 = CIRCLE( '', #418, 25.5000000000000 );
#371 = FILL_AREA_STYLE_COLOUR( '', #419 );
#372 = VERTEX_POINT( '', #420 );
#373 = CIRCLE( '', #421, 121.500000000000 );
#374 = FILL_AREA_STYLE_COLOUR( '', #422 );
#375 = VERTEX_POINT( '', #423 );
#376 = CIRCLE( '', #424, 25.5000000000000 );
#377 = FILL_AREA_STYLE_COLOUR( '', #425 );
#378 = VERTEX_POINT( '', #426 );
#379 = CIRCLE( '', #427, 113.500000000000 );
#380 = FILL_AREA_STYLE_COLOUR( '', #428 );
#381 = VERTEX_POINT( '', #429 );
#382 = CIRCLE( '', #430, 113.500000000000 );
#383 = VERTEX_POINT( '', #431 );
#384 = CIRCLE( '', #432, 120.500000000000 );
#385 = FILL_AREA_STYLE_COLOUR( '', #433 );
#386 = VERTEX_POINT( '', #434 );
#387 = CIRCLE( '', #435, 110.000000000000 );
#388 = FILL_AREA_STYLE_COLOUR( '', #436 );
#389 = VERTEX_POINT( '', #437 );
#390 = CIRCLE( '', #438, 26.7002945514000 );
#391 = FILL_AREA_STYLE_COLOUR( '', #439 );
#392 = VERTEX_POINT( '', #440 );
#393 = CIRCLE( '', #441, 25.5000000000000 );
#394 = FILL_AREA_STYLE_COLOUR( '', #442 );
#395 = FILL_AREA_STYLE_COLOUR( '', #443 );
#396 = FILL_AREA_STYLE_COLOUR( '', #444 );
#397 = FILL_AREA_STYLE_COLOUR( '', #445 );
#398 = VERTEX_POINT( '', #446 );
#399 = CIRCLE( '', #447, 14.0000000000000 );
#400 = FILL_AREA_STYLE_COLOUR( '', #448 );
#401 = VERTEX_POINT( '', #449 );
#402 = CIRCLE( '', #450, 25.5000000000000 );
#403 = FILL_AREA_STYLE_COLOUR( '', #451 );
#404 = COLOUR_RGB( '', 0.689999997600000, 0.689999997600000, 0.689999997600000 );
#405 = CARTESIAN_POINT( '', ( 30.5000000000000, 0.000000000000000, 110.000000000000 ) );
#406 = AXIS2_PLACEMENT_3D( '', #452, #453, #454 );
#407 = CARTESIAN_POINT( '', ( 24.1076696498885, 0.000000000000000, 26.8997054485502 ) );
#408 = AXIS2_PLACEMENT_3D( '', #455, #456, #457 );
#409 = COLOUR_RGB( '', 0.689999997600000, 0.689999997600000, 0.689999997600000 );
#410 = CARTESIAN_POINT( '', ( 36.4658560997307, 0.000000000000000, 121.500000000000 ) );
#411 = AXIS2_PLACEMENT_3D( '', #458, #459, #460 );
#412 = CARTESIAN_POINT( '', ( 34.0000000000000, 0.000000000000000, 120.500000000000 ) );
#413 = AXIS2_PLACEMENT_3D( '', #461, #462, #463 );
#414 = COLOUR_RGB( '', 0.689999997600000, 0.689999997600000, 0.689999997600000 );
#415 = CARTESIAN_POINT( '', ( 0.000000000000000, 0.000000000000000, -14.0000000000000 ) );
#416 = AXIS2_PLACEMENT_3D( '', #464, #465, #466 );
#417 = CARTESIAN_POINT( '', ( 0.000000000000000, 0.000000000000000, 25.5000000000000 ) );
#418 = AXIS2_PLACEMENT_3D( '', #467, #468, #469 );
#419 = COLOUR_RGB( '', 0.689999997600000, 0.689999997600000, 0.689999997600000 );
#420 = CARTESIAN_POINT( '', ( 14.5341439002693, 0.000000000000000, 121.500000000000 ) );
#421 = AXIS2_PLACEMENT_3D( '', #470, #471, #472 );
#422 = COLOUR_RGB( '', 0.689999997600000, 0.689999997600000, 0.689999997600000 );
#423 = CARTESIAN_POINT( '', ( 25.4038404810405, 0.000000000000000, 25.5000000000000 ) );
#424 = AXIS2_PLACEMENT_3D( '', #473, #474, #475 );
#425 = COLOUR_RGB( '', 0.689999997600000, 0.689999997600000, 0.689999997600000 );
#426 = CARTESIAN_POINT( '', ( 34.0000000000000, 0.000000000000000, 113.500000000000 ) );
#427 = AXIS2_PLACEMENT_3D( '', #476, #477, #478 );
#428 = COLOUR_RGB( '', 0.689999997600000, 0.689999997600000, 0.689999997600000 );
#429 = CARTESIAN_POINT( '', ( 17.0000000000000, 0.000000000000000, 113.500000000000 ) );
#430 = AXIS2_PLACEMENT_3D( '', #479, #480, #481 );
#431 = CARTESIAN_POINT( '', ( 17.0000000000000, 0.000000000000000, 120.500000000000 ) );
#432 = AXIS2_PLACEMENT_3D( '', #482, #483, #484 );
#433 = COLOUR_RGB( '', 0.689999997600000, 0.689999997600000, 0.689999997600000 );
#434 = CARTESIAN_POINT( '', ( 20.5000000000000, 0.000000000000000, 110.000000000000 ) );
#435 = AXIS2_PLACEMENT_3D( '', #485, #486, #487 );
#436 = COLOUR_RGB( '', 0.689999997600000, 0.689999997600000, 0.689999997600000 );
#437 = CARTESIAN_POINT( '', ( 14.0923303501115, 0.000000000000000, 26.7002945514498 ) );
#438 = AXIS2_PLACEMENT_3D( '', #488, #489, #490 );
#439 = COLOUR_RGB( '', 0.689999997600000, 0.689999997600000, 0.689999997600000 );
#440 = CARTESIAN_POINT( '', ( 12.7961595189595, 0.000000000000000, 25.5000000000000 ) );
#441 = AXIS2_PLACEMENT_3D( '', #491, #492, #493 );
#442 = COLOUR_RGB( '', 0.689999997600000, 0.689999997600000, 0.689999997600000 );
#443 = COLOUR_RGB( '', 0.689999997600000, 0.689999997600000, 0.689999997600000 );
#444 = COLOUR_RGB( '', 0.689999997600000, 0.689999997600000, 0.689999997600000 );
#445 = COLOUR_RGB( '', 0.689999997600000, 0.689999997600000, 0.689999997600000 );
#446 = CARTESIAN_POINT( '', ( 30.0000000000000, 0.000000000000000, 14.0000000000000 ) );
#447 = AXIS2_PLACEMENT_3D( '', #494, #495, #496 );
#448 = COLOUR_RGB( '', 0.689999997600000, 0.689999997600000, 0.689999997600000 );
#449 = CARTESIAN_POINT( '', ( 30.0000000000000, 0.000000000000000, 25.5000000000000 ) );
#450 = AXIS2_PLACEMENT_3D( '', #497, #498, #499 );
#451 = COLOUR_RGB( '', 0.689999997600000, 0.689999997600000, 0.689999997600000 );
#452 = CARTESIAN_POINT( '', ( 30.5000000000000, 0.000000000000000, 0.000000000000000 ) );
#453 = DIRECTION( '', ( -1.00000000000000, 0.000000000000000, 0.000000000000000 ) );
#454 = DIRECTION( '', ( 0.000000000000000, 0.000000000000000, 1.00000000000000 ) );
#455 = CARTESIAN_POINT( '', ( 24.1076696498885, 0.000000000000000, 0.000000000000000 ) );
#456 = DIRECTION( '', ( -1.00000000000000, 0.000000000000000, 0.000000000000000 ) );
#457 = DIRECTION( '', ( 0.000000000000000, 0.000000000000000, 1.00000000000000 ) );
#458 = CARTESIAN_POINT( '', ( 36.4658560997307, 0.000000000000000, 0.000000000000000 ) );
#459 = DIRECTION( '', ( -1.00000000000000, 0.000000000000000, 0.000000000000000 ) );
#460 = DIRECTION( '', ( 0.000000000000000, 0.000000000000000, 1.00000000000000 ) );
#461 = CARTESIAN_POINT( '', ( 34.0000000000000, 0.000000000000000, 0.000000000000000 ) );
#462 = DIRECTION( '', ( -1.00000000000000, 0.000000000000000, 0.000000000000000 ) );
#463 = DIRECTION( '', ( 0.000000000000000, 0.000000000000000, 1.00000000000000 ) );
#464 = CARTESIAN_POINT( '', ( 0.000000000000000, 0.000000000000000, 0.000000000000000 ) );
#465 = DIRECTION( '', ( 1.00000000000000, 0.000000000000000, 0.000000000000000 ) );
#466 = DIRECTION( '', ( 0.000000000000000, 0.000000000000000, -1.00000000000000 ) );
#467 = CARTESIAN_POINT( '', ( 0.000000000000000, 0.000000000000000, 0.000000000000000 ) );
#468 = DIRECTION( '', ( -1.00000000000000, 0.000000000000000, 0.000000000000000 ) );
#469 = DIRECTION( '', ( 0.000000000000000, 0.000000000000000, 1.00000000000000 ) );
#470 = CARTESIAN_POINT( '', ( 14.5341439002693, 0.000000000000000, 0.000000000000000 ) );
#471 = DIRECTION( '', ( -1.00000000000000, 0.000000000000000, 0.000000000000000 ) );
#472 = DIRECTION( '', ( 0.000000000000000, 0.000000000000000, 1.00000000000000 ) );
#473 = CARTESIAN_POINT( '', ( 25.4038404810405, 0.000000000000000, 0.000000000000000 ) );
#474 = DIRECTION( '', ( -1.00000000000000, 0.000000000000000, 0.000000000000000 ) );
#475 = DIRECTION( '', ( 0.000000000000000, 0.000000000000000, 1.00000000000000 ) );
#476 = CARTESIAN_POINT( '', ( 34.0000000000000, 0.000000000000000, 0.000000000000000 ) );
#477 = DIRECTION( '', ( -1.00000000000000, 0.000000000000000, 0.000000000000000 ) );
#478 = DIRECTION( '', ( 0.000000000000000, 0.000000000000000, 1.00000000000000 ) );
#479 = CARTESIAN_POINT( '', ( 17.0000000000000, 0.000000000000000, 0.000000000000000 ) );
#480 = DIRECTION( '', ( -1.00000000000000, 0.000000000000000, 0.000000000000000 ) );
#481 = DIRECTION( '', ( 0.000000000000000, 0.000000000000000, 1.00000000000000 ) );
#482 = CARTESIAN_POINT( '', ( 17.0000000000000, 0.000000000000000, 0.000000000000000 ) );
#483 = DIRECTION( '', ( -1.00000000000000, 0.000000000000000, 0.000000000000000 ) );
#484 = DIRECTION( '', ( 0.000000000000000, 0.000000000000000, 1.00000000000000 ) );
#485 = CARTESIAN_POINT( '', ( 20.5000000000000, 0.000000000000000, 0.000000000000000 ) );
#486 = DIRECTION( '', ( -1.00000000000000, 0.000000000000000, 0.000000000000000 ) );
#487 = DIRECTION( '', ( 0.000000000000000, 0.000000000000000, 1.00000000000000 ) );
#488 = CARTESIAN_POINT( '', ( 14.0923303501115, 0.000000000000000, 0.000000000000000 ) );
#489 = DIRECTION( '', ( -1.00000000000000, 0.000000000000000, 0.000000000000000 ) );
#490 = DIRECTION( '', ( 0.000000000000000, 0.000000000000000, 1.00000000000000 ) );
#491 = CARTESIAN_POINT( '', ( 12.7961595189595, 0.000000000000000, 0.000000000000000 ) );
#492 = DIRECTION( '', ( -1.00000000000000, 0.000000000000000, 0.000000000000000 ) );
#493 = DIRECTION( '', ( 0.000000000000000, 0.000000000000000, 1.00000000000000 ) );
#494 = CARTESIAN_POINT( '', ( 30.0000000000000, 0.000000000000000, 0.000000000000000 ) );
#495 = DIRECTION( '', ( -1.00000000000000, 0.000000000000000, 0.000000000000000 ) );
#496 = DIRECTION( '', ( 0.000000000000000, 0.000000000000000, 1.00000000000000 ) );
#497 = CARTESIAN_POINT( '', ( 30.0000000000000, 0.000000000000000, 0.000000000000000 ) );
#498 = DIRECTION( '', ( -1.00000000000000, 0.000000000000000, 0.000000000000000 ) );
#499 = DIRECTION( '', ( 0.000000000000000, 0.000000000000000, 1.00000000000000 ) );
ENDSEC;
END-ISO-10303-21;
