ISO-10303-21;
HEADER;
FILE_DESCRIPTION( ( 'STEP AP214' ), '1' );
FILE_NAME( '//goodhand-server/Shared Folders/GoodHand Data/Kipp CAD/K0676/K0676.2008X030.stp', '2020-12-09T11:09:34', ( '' ), ( '' ), ' ', 'PARTsolutions', ' ' );
FILE_SCHEMA( ( 'AUTOMOTIVE_DESIGN { 1 0 10303 214 1 1 1 1 }' ) );
ENDSEC;
DATA;
#1 = MECHANICAL_DESIGN_GEOMETRIC_PRESENTATION_REPRESENTATION( ' ', ( #10, #11, #12, #13, #14, #15, #16, #17, #18, #19, #20 ), #6 );
#2 = PRODUCT_DEFINITION_CONTEXT( '', #21, 'design' );
#3 = APPLICATION_PROTOCOL_DEFINITION( 'international standard', 'automotive_design', 2001, #21 );
#4 = PRODUCT_CATEGORY_RELATIONSHIP( 'NONE', 'NONE', #22, #23 );
#5 = SHAPE_DEFINITION_REPRESENTATION( #24, #25 );
#6 =  ( GEOMETRIC_REPRESENTATION_CONTEXT( 3 )GLOBAL_UNCERTAINTY_ASSIGNED_CONTEXT( ( #28 ) )GLOBAL_UNIT_ASSIGNED_CONTEXT( ( #30, #31, #32 ) )REPRESENTATION_CONTEXT( 'NONE', 'WORKSPACE' ) );
#10 = STYLED_ITEM( '', ( #34 ), #35 );
#11 = STYLED_ITEM( '', ( #36 ), #37 );
#12 = STYLED_ITEM( '', ( #38 ), #39 );
#13 = STYLED_ITEM( '', ( #40 ), #41 );
#14 = STYLED_ITEM( '', ( #42 ), #43 );
#15 = STYLED_ITEM( '', ( #44 ), #45 );
#16 = STYLED_ITEM( '', ( #46 ), #47 );
#17 = STYLED_ITEM( '', ( #48 ), #49 );
#18 = STYLED_ITEM( '', ( #50 ), #51 );
#19 = STYLED_ITEM( '', ( #52 ), #53 );
#20 = STYLED_ITEM( '', ( #54 ), #55 );
#21 = APPLICATION_CONTEXT( 'core data for automotive mechanical design processes' );
#22 = PRODUCT_CATEGORY( 'part', 'NONE' );
#23 = PRODUCT_RELATED_PRODUCT_CATEGORY( 'detail', ' ', ( #56 ) );
#24 = PRODUCT_DEFINITION_SHAPE( 'NONE', 'NONE', #57 );
#25 = ADVANCED_BREP_SHAPE_REPRESENTATION( '_K0676.2008X030', ( #58, #59 ), #6 );
#28 = UNCERTAINTY_MEASURE_WITH_UNIT( LENGTH_MEASURE( 0.00100000000000000 ), #30, '', '' );
#30 =  ( CONVERSION_BASED_UNIT( 'MILLIMETRE', #62 )LENGTH_UNIT(  )NAMED_UNIT( #65 ) );
#31 =  ( NAMED_UNIT( #67 )PLANE_ANGLE_UNIT(  )SI_UNIT( $, .RADIAN. ) );
#32 =  ( NAMED_UNIT( #67 )SI_UNIT( $, .STERADIAN. )SOLID_ANGLE_UNIT(  ) );
#34 = PRESENTATION_STYLE_ASSIGNMENT( ( #73 ) );
#35 = ADVANCED_FACE( '', ( #74 ), #75, .T. );
#36 = PRESENTATION_STYLE_ASSIGNMENT( ( #76 ) );
#37 = ADVANCED_FACE( '', ( #77 ), #78, .T. );
#38 = PRESENTATION_STYLE_ASSIGNMENT( ( #79 ) );
#39 = ADVANCED_FACE( '', ( #80, #81 ), #82, .T. );
#40 = PRESENTATION_STYLE_ASSIGNMENT( ( #83 ) );
#41 = ADVANCED_FACE( '', ( #84 ), #85, .F. );
#42 = PRESENTATION_STYLE_ASSIGNMENT( ( #86 ) );
#43 = ADVANCED_FACE( '', ( #87 ), #88, .T. );
#44 = PRESENTATION_STYLE_ASSIGNMENT( ( #89 ) );
#45 = ADVANCED_FACE( '', ( #90 ), #91, .T. );
#46 = PRESENTATION_STYLE_ASSIGNMENT( ( #92 ) );
#47 = ADVANCED_FACE( '', ( #93 ), #94, .T. );
#48 = PRESENTATION_STYLE_ASSIGNMENT( ( #95 ) );
#49 = ADVANCED_FACE( '', ( #96, #97 ), #98, .T. );
#50 = PRESENTATION_STYLE_ASSIGNMENT( ( #99 ) );
#51 = ADVANCED_FACE( '', ( #100 ), #101, .F. );
#52 = PRESENTATION_STYLE_ASSIGNMENT( ( #102 ) );
#53 = ADVANCED_FACE( '', ( #103 ), #104, .T. );
#54 = PRESENTATION_STYLE_ASSIGNMENT( ( #105 ) );
#55 = ADVANCED_FACE( '', ( #106, #107 ), #108, .T. );
#56 = PRODUCT( '_K0676.2008X030', '_K0676.2008X030', 'PART-_K0676.2008X030-DESC', ( #109 ) );
#57 = PRODUCT_DEFINITION( 'NONE', 'NONE', #110, #2 );
#58 = MANIFOLD_SOLID_BREP( '_K0676.2008X030', #111 );
#59 = AXIS2_PLACEMENT_3D( '', #112, #113, #114 );
#62 = LENGTH_MEASURE_WITH_UNIT( LENGTH_MEASURE( 1.00000000000000 ), #115 );
#65 = DIMENSIONAL_EXPONENTS( 1.00000000000000, 0.000000000000000, 0.000000000000000, 0.000000000000000, 0.000000000000000, 0.000000000000000, 0.000000000000000 );
#67 = DIMENSIONAL_EXPONENTS( 0.000000000000000, 0.000000000000000, 0.000000000000000, 0.000000000000000, 0.000000000000000, 0.000000000000000, 0.000000000000000 );
#73 = SURFACE_STYLE_USAGE( .BOTH., #116 );
#74 = FACE_OUTER_BOUND( '', #117, .T. );
#75 = PLANE( '', #118 );
#76 = SURFACE_STYLE_USAGE( .BOTH., #119 );
#77 = FACE_OUTER_BOUND( '', #120, .T. );
#78 = PLANE( '', #121 );
#79 = SURFACE_STYLE_USAGE( .BOTH., #122 );
#80 = FACE_OUTER_BOUND( '', #123, .T. );
#81 = FACE_OUTER_BOUND( '', #124, .T. );
#82 = CYLINDRICAL_SURFACE( '', #125, 4.00000000000000 );
#83 = SURFACE_STYLE_USAGE( .BOTH., #126 );
#84 = FACE_OUTER_BOUND( '', #127, .T. );
#85 = PLANE( '', #128 );
#86 = SURFACE_STYLE_USAGE( .BOTH., #129 );
#87 = FACE_OUTER_BOUND( '', #130, .T. );
#88 = PLANE( '', #131 );
#89 = SURFACE_STYLE_USAGE( .BOTH., #132 );
#90 = FACE_OUTER_BOUND( '', #133, .T. );
#91 = PLANE( '', #134 );
#92 = SURFACE_STYLE_USAGE( .BOTH., #135 );
#93 = FACE_OUTER_BOUND( '', #136, .T. );
#94 = PLANE( '', #137 );
#95 = SURFACE_STYLE_USAGE( .BOTH., #138 );
#96 = FACE_BOUND( '', #139, .T. );
#97 = FACE_OUTER_BOUND( '', #140, .T. );
#98 = PLANE( '', #141 );
#99 = SURFACE_STYLE_USAGE( .BOTH., #142 );
#100 = FACE_OUTER_BOUND( '', #143, .T. );
#101 = PLANE( '', #144 );
#102 = SURFACE_STYLE_USAGE( .BOTH., #145 );
#103 = FACE_OUTER_BOUND( '', #146, .T. );
#104 = PLANE( '', #147 );
#105 = SURFACE_STYLE_USAGE( .BOTH., #148 );
#106 = FACE_OUTER_BOUND( '', #149, .T. );
#107 = FACE_BOUND( '', #150, .T. );
#108 = CONICAL_SURFACE( '', #151, 3.23300000000000, 0.785398163400000 );
#109 = PRODUCT_CONTEXT( '', #21, 'mechanical' );
#110 = PRODUCT_DEFINITION_FORMATION_WITH_SPECIFIED_SOURCE( ' ', 'NONE', #56, .NOT_KNOWN. );
#111 = CLOSED_SHELL( '', ( #53, #41, #43, #35, #45, #37, #47, #49, #51, #55, #39 ) );
#112 = CARTESIAN_POINT( '', ( 0.000000000000000, 0.000000000000000, 0.000000000000000 ) );
#113 = DIRECTION( '', ( 0.000000000000000, 0.000000000000000, 1.00000000000000 ) );
#114 = DIRECTION( '', ( 1.00000000000000, 0.000000000000000, 0.000000000000000 ) );
#115 =  ( LENGTH_UNIT(  )NAMED_UNIT( #65 )SI_UNIT( .MILLI., .METRE. ) );
#116 = SURFACE_SIDE_STYLE( '', ( #153 ) );
#117 = EDGE_LOOP( '', ( #154, #155, #156, #157 ) );
#118 = AXIS2_PLACEMENT_3D( '', #158, #159, #160 );
#119 = SURFACE_SIDE_STYLE( '', ( #161 ) );
#120 = EDGE_LOOP( '', ( #162, #163, #164, #165 ) );
#121 = AXIS2_PLACEMENT_3D( '', #166, #167, #168 );
#122 = SURFACE_SIDE_STYLE( '', ( #169 ) );
#123 = EDGE_LOOP( '', ( #170 ) );
#124 = EDGE_LOOP( '', ( #171 ) );
#125 = AXIS2_PLACEMENT_3D( '', #172, #173, #174 );
#126 = SURFACE_SIDE_STYLE( '', ( #175 ) );
#127 = EDGE_LOOP( '', ( #176, #177, #178, #179, #180, #181 ) );
#128 = AXIS2_PLACEMENT_3D( '', #182, #183, #184 );
#129 = SURFACE_SIDE_STYLE( '', ( #185 ) );
#130 = EDGE_LOOP( '', ( #186, #187, #188, #189 ) );
#131 = AXIS2_PLACEMENT_3D( '', #190, #191, #192 );
#132 = SURFACE_SIDE_STYLE( '', ( #193 ) );
#133 = EDGE_LOOP( '', ( #194, #195, #196, #197 ) );
#134 = AXIS2_PLACEMENT_3D( '', #198, #199, #200 );
#135 = SURFACE_SIDE_STYLE( '', ( #201 ) );
#136 = EDGE_LOOP( '', ( #202, #203, #204, #205 ) );
#137 = AXIS2_PLACEMENT_3D( '', #206, #207, #208 );
#138 = SURFACE_SIDE_STYLE( '', ( #209 ) );
#139 = EDGE_LOOP( '', ( #210 ) );
#140 = EDGE_LOOP( '', ( #211, #212, #213, #214, #215, #216 ) );
#141 = AXIS2_PLACEMENT_3D( '', #217, #218, #219 );
#142 = SURFACE_SIDE_STYLE( '', ( #220 ) );
#143 = EDGE_LOOP( '', ( #221 ) );
#144 = AXIS2_PLACEMENT_3D( '', #222, #223, #224 );
#145 = SURFACE_SIDE_STYLE( '', ( #225 ) );
#146 = EDGE_LOOP( '', ( #226, #227, #228, #229 ) );
#147 = AXIS2_PLACEMENT_3D( '', #230, #231, #232 );
#148 = SURFACE_SIDE_STYLE( '', ( #233 ) );
#149 = EDGE_LOOP( '', ( #234 ) );
#150 = EDGE_LOOP( '', ( #235 ) );
#151 = AXIS2_PLACEMENT_3D( '', #236, #237, #238 );
#153 = SURFACE_STYLE_FILL_AREA( #239 );
#154 = ORIENTED_EDGE( '', *, *, #240, .F. );
#155 = ORIENTED_EDGE( '', *, *, #241, .F. );
#156 = ORIENTED_EDGE( '', *, *, #242, .T. );
#157 = ORIENTED_EDGE( '', *, *, #243, .T. );
#158 = CARTESIAN_POINT( '', ( -10.0000000000000, 7.00000000000000, -5.77350269189626 ) );
#159 = DIRECTION( '', ( -0.999048221581858, -0.0436193873653360, 0.000000000000000 ) );
#160 = DIRECTION( '', ( 0.0436193873653360, -0.999048221581858, 0.000000000000000 ) );
#161 = SURFACE_STYLE_FILL_AREA( #244 );
#162 = ORIENTED_EDGE( '', *, *, #245, .F. );
#163 = ORIENTED_EDGE( '', *, *, #246, .F. );
#164 = ORIENTED_EDGE( '', *, *, #247, .T. );
#165 = ORIENTED_EDGE( '', *, *, #248, .T. );
#166 = CARTESIAN_POINT( '', ( 0.000000000000000, 7.00000000000000, 11.5470053837925 ) );
#167 = DIRECTION( '', ( 0.499524110790929, -0.0436193873653360, 0.865201139495554 ) );
#168 = DIRECTION( '', ( 0.866025403784439, 0.000000000000000, -0.500000000000000 ) );
#169 = SURFACE_STYLE_FILL_AREA( #249 );
#170 = ORIENTED_EDGE( '', *, *, #250, .F. );
#171 = ORIENTED_EDGE( '', *, *, #251, .T. );
#172 = CARTESIAN_POINT( '', ( 0.000000000000000, 7.00000000000000, 0.000000000000000 ) );
#173 = DIRECTION( '', ( -0.000000000000000, 1.00000000000000, 0.000000000000000 ) );
#174 = DIRECTION( '', ( 0.000000000000000, 0.000000000000000, -1.00000000000000 ) );
#175 = SURFACE_STYLE_FILL_AREA( #252 );
#176 = ORIENTED_EDGE( '', *, *, #242, .F. );
#177 = ORIENTED_EDGE( '', *, *, #253, .F. );
#178 = ORIENTED_EDGE( '', *, *, #254, .F. );
#179 = ORIENTED_EDGE( '', *, *, #255, .F. );
#180 = ORIENTED_EDGE( '', *, *, #247, .F. );
#181 = ORIENTED_EDGE( '', *, *, #256, .F. );
#182 = CARTESIAN_POINT( '', ( 0.000000000000000, 0.000000000000000, 0.000000000000000 ) );
#183 = DIRECTION( '', ( 0.000000000000000, 1.00000000000000, 0.000000000000000 ) );
#184 = DIRECTION( '', ( 0.000000000000000, -0.000000000000000, 1.00000000000000 ) );
#185 = SURFACE_STYLE_FILL_AREA( #257 );
#186 = ORIENTED_EDGE( '', *, *, #258, .F. );
#187 = ORIENTED_EDGE( '', *, *, #259, .F. );
#188 = ORIENTED_EDGE( '', *, *, #254, .T. );
#189 = ORIENTED_EDGE( '', *, *, #260, .T. );
#190 = CARTESIAN_POINT( '', ( 10.0000000000000, 7.00000000000000, -5.77350269189626 ) );
#191 = DIRECTION( '', ( 0.499524110790929, -0.0436193873653360, -0.865201139495554 ) );
#192 = DIRECTION( '', ( -0.866025403784439, 0.000000000000000, -0.500000000000000 ) );
#193 = SURFACE_STYLE_FILL_AREA( #261 );
#194 = ORIENTED_EDGE( '', *, *, #262, .F. );
#195 = ORIENTED_EDGE( '', *, *, #243, .F. );
#196 = ORIENTED_EDGE( '', *, *, #256, .T. );
#197 = ORIENTED_EDGE( '', *, *, #246, .T. );
#198 = CARTESIAN_POINT( '', ( -10.0000000000000, 7.00000000000000, 5.77350269189626 ) );
#199 = DIRECTION( '', ( -0.499524110790929, -0.0436193873653360, 0.865201139495554 ) );
#200 = DIRECTION( '', ( 0.866025403784439, 0.000000000000000, 0.500000000000000 ) );
#201 = SURFACE_STYLE_FILL_AREA( #263 );
#202 = ORIENTED_EDGE( '', *, *, #264, .F. );
#203 = ORIENTED_EDGE( '', *, *, #248, .F. );
#204 = ORIENTED_EDGE( '', *, *, #255, .T. );
#205 = ORIENTED_EDGE( '', *, *, #259, .T. );
#206 = CARTESIAN_POINT( '', ( 10.0000000000000, 7.00000000000000, 5.77350269189626 ) );
#207 = DIRECTION( '', ( 0.999048221581858, -0.0436193873653360, 0.000000000000000 ) );
#208 = DIRECTION( '', ( 0.0436193873653360, 0.999048221581858, 0.000000000000000 ) );
#209 = SURFACE_STYLE_FILL_AREA( #265 );
#210 = ORIENTED_EDGE( '', *, *, #250, .T. );
#211 = ORIENTED_EDGE( '', *, *, #240, .T. );
#212 = ORIENTED_EDGE( '', *, *, #262, .T. );
#213 = ORIENTED_EDGE( '', *, *, #245, .T. );
#214 = ORIENTED_EDGE( '', *, *, #264, .T. );
#215 = ORIENTED_EDGE( '', *, *, #258, .T. );
#216 = ORIENTED_EDGE( '', *, *, #266, .T. );
#217 = CARTESIAN_POINT( '', ( 0.000000000000000, 7.00000000000000, 0.000000000000000 ) );
#218 = DIRECTION( '', ( 0.000000000000000, 1.00000000000000, 0.000000000000000 ) );
#219 = DIRECTION( '', ( 0.000000000000000, -0.000000000000000, 1.00000000000000 ) );
#220 = SURFACE_STYLE_FILL_AREA( #267 );
#221 = ORIENTED_EDGE( '', *, *, #268, .F. );
#222 = CARTESIAN_POINT( '', ( 0.000000000000000, 37.0000000000000, 0.000000000000000 ) );
#223 = DIRECTION( '', ( 0.000000000000000, -1.00000000000000, -0.000000000000000 ) );
#224 = DIRECTION( '', ( 0.000000000000000, 0.000000000000000, -1.00000000000000 ) );
#225 = SURFACE_STYLE_FILL_AREA( #269 );
#226 = ORIENTED_EDGE( '', *, *, #266, .F. );
#227 = ORIENTED_EDGE( '', *, *, #260, .F. );
#228 = ORIENTED_EDGE( '', *, *, #253, .T. );
#229 = ORIENTED_EDGE( '', *, *, #241, .T. );
#230 = CARTESIAN_POINT( '', ( 0.000000000000000, 7.00000000000000, -11.5470053837925 ) );
#231 = DIRECTION( '', ( -0.499524110790929, -0.0436193873653360, -0.865201139495554 ) );
#232 = DIRECTION( '', ( -0.866025403784439, 0.000000000000000, 0.500000000000000 ) );
#233 = SURFACE_STYLE_FILL_AREA( #270 );
#234 = ORIENTED_EDGE( '', *, *, #251, .F. );
#235 = ORIENTED_EDGE( '', *, *, #268, .T. );
#236 = CARTESIAN_POINT( '', ( 0.000000000000000, 37.0000000000000, 0.000000000000000 ) );
#237 = DIRECTION( '', ( -0.000000000000000, -1.00000000000000, -0.000000000000000 ) );
#238 = DIRECTION( '', ( 0.000000000000000, 0.000000000000000, -1.00000000000000 ) );
#239 = FILL_AREA_STYLE( '', ( #271 ) );
#240 = EDGE_CURVE( '', #272, #273, #274, .T. );
#241 = EDGE_CURVE( '', #275, #272, #276, .T. );
#242 = EDGE_CURVE( '', #275, #277, #278, .T. );
#243 = EDGE_CURVE( '', #277, #273, #279, .T. );
#244 = FILL_AREA_STYLE( '', ( #280 ) );
#245 = EDGE_CURVE( '', #281, #282, #283, .T. );
#246 = EDGE_CURVE( '', #284, #281, #285, .T. );
#247 = EDGE_CURVE( '', #284, #286, #287, .T. );
#248 = EDGE_CURVE( '', #286, #282, #288, .T. );
#249 = FILL_AREA_STYLE( '', ( #289 ) );
#250 = EDGE_CURVE( '', #290, #290, #291, .T. );
#251 = EDGE_CURVE( '', #292, #292, #293, .T. );
#252 = FILL_AREA_STYLE( '', ( #294 ) );
#253 = EDGE_CURVE( '', #295, #275, #296, .T. );
#254 = EDGE_CURVE( '', #297, #295, #298, .T. );
#255 = EDGE_CURVE( '', #286, #297, #299, .T. );
#256 = EDGE_CURVE( '', #277, #284, #300, .T. );
#257 = FILL_AREA_STYLE( '', ( #301 ) );
#258 = EDGE_CURVE( '', #302, #303, #304, .T. );
#259 = EDGE_CURVE( '', #297, #302, #305, .T. );
#260 = EDGE_CURVE( '', #295, #303, #306, .T. );
#261 = FILL_AREA_STYLE( '', ( #307 ) );
#262 = EDGE_CURVE( '', #273, #281, #308, .T. );
#263 = FILL_AREA_STYLE( '', ( #309 ) );
#264 = EDGE_CURVE( '', #282, #302, #310, .T. );
#265 = FILL_AREA_STYLE( '', ( #311 ) );
#266 = EDGE_CURVE( '', #303, #272, #312, .T. );
#267 = FILL_AREA_STYLE( '', ( #313 ) );
#268 = EDGE_CURVE( '', #314, #314, #315, .T. );
#269 = FILL_AREA_STYLE( '', ( #316 ) );
#270 = FILL_AREA_STYLE( '', ( #317 ) );
#271 = FILL_AREA_STYLE_COLOUR( '', #318 );
#272 = VERTEX_POINT( '', #319 );
#273 = VERTEX_POINT( '', #320 );
#274 = LINE( '', #321, #322 );
#275 = VERTEX_POINT( '', #323 );
#276 = LINE( '', #324, #325 );
#277 = VERTEX_POINT( '', #326 );
#278 = LINE( '', #327, #328 );
#279 = LINE( '', #329, #330 );
#280 = FILL_AREA_STYLE_COLOUR( '', #331 );
#281 = VERTEX_POINT( '', #332 );
#282 = VERTEX_POINT( '', #333 );
#283 = LINE( '', #334, #335 );
#284 = VERTEX_POINT( '', #336 );
#285 = LINE( '', #337, #338 );
#286 = VERTEX_POINT( '', #339 );
#287 = LINE( '', #340, #341 );
#288 = LINE( '', #342, #343 );
#289 = FILL_AREA_STYLE_COLOUR( '', #344 );
#290 = VERTEX_POINT( '', #345 );
#291 = CIRCLE( '', #346, 4.00000000000000 );
#292 = VERTEX_POINT( '', #347 );
#293 = CIRCLE( '', #348, 4.00000000000000 );
#294 = FILL_AREA_STYLE_COLOUR( '', #349 );
#295 = VERTEX_POINT( '', #350 );
#296 = LINE( '', #351, #352 );
#297 = VERTEX_POINT( '', #353 );
#298 = LINE( '', #354, #355 );
#299 = LINE( '', #356, #357 );
#300 = LINE( '', #358, #359 );
#301 = FILL_AREA_STYLE_COLOUR( '', #360 );
#302 = VERTEX_POINT( '', #361 );
#303 = VERTEX_POINT( '', #362 );
#304 = LINE( '', #363, #364 );
#305 = LINE( '', #365, #366 );
#306 = LINE( '', #367, #368 );
#307 = FILL_AREA_STYLE_COLOUR( '', #369 );
#308 = LINE( '', #370, #371 );
#309 = FILL_AREA_STYLE_COLOUR( '', #372 );
#310 = LINE( '', #373, #374 );
#311 = FILL_AREA_STYLE_COLOUR( '', #375 );
#312 = LINE( '', #376, #377 );
#313 = FILL_AREA_STYLE_COLOUR( '', #378 );
#314 = VERTEX_POINT( '', #379 );
#315 = CIRCLE( '', #380, 3.23300000000000 );
#316 = FILL_AREA_STYLE_COLOUR( '', #381 );
#317 = FILL_AREA_STYLE_COLOUR( '', #382 );
#318 = COLOUR_RGB( '', 0.689999997600000, 0.689999997600000, 0.689999997600000 );
#319 = CARTESIAN_POINT( '', ( -10.0000000000000, 7.00000000000000, -5.77350269189626 ) );
#320 = CARTESIAN_POINT( '', ( -10.0000000000000, 7.00000000000000, 5.77350269189626 ) );
#321 = CARTESIAN_POINT( '', ( -10.0000000000000, 7.00000000000000, -5.77350269189626 ) );
#322 = VECTOR( '', #383, 1000.00000000000 );
#323 = CARTESIAN_POINT( '', ( -9.69437339964042, 0.000000000000000, -5.59704909190714 ) );
#324 = CARTESIAN_POINT( '', ( -9.98732369983069, 6.70966499290056, -5.76618402658118 ) );
#325 = VECTOR( '', #384, 1000.00000000000 );
#326 = CARTESIAN_POINT( '', ( -9.69437339964042, 0.000000000000000, 5.59704909190714 ) );
#327 = CARTESIAN_POINT( '', ( -9.69437339964042, 0.000000000000000, 0.000000000000000 ) );
#328 = VECTOR( '', #385, 1000.00000000000 );
#329 = CARTESIAN_POINT( '', ( -9.98732369983069, 6.70966499290056, 5.76618402658118 ) );
#330 = VECTOR( '', #386, 1000.00000000000 );
#331 = COLOUR_RGB( '', 0.689999997600000, 0.689999997600000, 0.689999997600000 );
#332 = CARTESIAN_POINT( '', ( 0.000000000000000, 7.00000000000000, 11.5470053837925 ) );
#333 = CARTESIAN_POINT( '', ( 10.0000000000000, 7.00000000000000, 5.77350269189626 ) );
#334 = CARTESIAN_POINT( '', ( 0.000000000000000, 7.00000000000000, 11.5470053837925 ) );
#335 = VECTOR( '', #387, 1000.00000000000 );
#336 = CARTESIAN_POINT( '', ( -4.39010374806836E-16, 0.000000000000000, 11.1940981838143 ) );
#337 = CARTESIAN_POINT( '', ( 0.000000000000000, 6.70966499290056, 11.5323680531624 ) );
#338 = VECTOR( '', #388, 1000.00000000000 );
#339 = CARTESIAN_POINT( '', ( 9.69437339964042, 0.000000000000000, 5.59704909190714 ) );
#340 = CARTESIAN_POINT( '', ( 4.84718669982021, 0.000000000000000, 8.39557363786071 ) );
#341 = VECTOR( '', #389, 1000.00000000000 );
#342 = CARTESIAN_POINT( '', ( 9.98732369983069, 6.70966499290056, 5.76618402658118 ) );
#343 = VECTOR( '', #390, 1000.00000000000 );
#344 = COLOUR_RGB( '', 0.689999997600000, 0.689999997600000, 0.689999997600000 );
#345 = CARTESIAN_POINT( '', ( 0.000000000000000, 7.00000000000000, -4.00000000000000 ) );
#346 = AXIS2_PLACEMENT_3D( '', #391, #392, #393 );
#347 = CARTESIAN_POINT( '', ( 0.000000000000000, 36.2330000000000, -4.00000000000000 ) );
#348 = AXIS2_PLACEMENT_3D( '', #394, #395, #396 );
#349 = COLOUR_RGB( '', 0.689999997600000, 0.689999997600000, 0.689999997600000 );
#350 = CARTESIAN_POINT( '', ( 4.39010374806836E-16, 0.000000000000000, -11.1940981838143 ) );
#351 = CARTESIAN_POINT( '', ( -4.84718669982021, 0.000000000000000, -8.39557363786071 ) );
#352 = VECTOR( '', #397, 1000.00000000000 );
#353 = CARTESIAN_POINT( '', ( 9.69437339964042, 0.000000000000000, -5.59704909190714 ) );
#354 = CARTESIAN_POINT( '', ( 4.84718669982021, 0.000000000000000, -8.39557363786071 ) );
#355 = VECTOR( '', #398, 1000.00000000000 );
#356 = CARTESIAN_POINT( '', ( 9.69437339964042, 0.000000000000000, 0.000000000000000 ) );
#357 = VECTOR( '', #399, 1000.00000000000 );
#358 = CARTESIAN_POINT( '', ( -4.84718669982021, 0.000000000000000, 8.39557363786071 ) );
#359 = VECTOR( '', #400, 1000.00000000000 );
#360 = COLOUR_RGB( '', 0.689999997600000, 0.689999997600000, 0.689999997600000 );
#361 = CARTESIAN_POINT( '', ( 10.0000000000000, 7.00000000000000, -5.77350269189626 ) );
#362 = CARTESIAN_POINT( '', ( 0.000000000000000, 7.00000000000000, -11.5470053837925 ) );
#363 = CARTESIAN_POINT( '', ( 10.0000000000000, 7.00000000000000, -5.77350269189626 ) );
#364 = VECTOR( '', #401, 1000.00000000000 );
#365 = CARTESIAN_POINT( '', ( 9.98732369983069, 6.70966499290056, -5.76618402658118 ) );
#366 = VECTOR( '', #402, 1000.00000000000 );
#367 = CARTESIAN_POINT( '', ( 0.000000000000000, 6.70966499290056, -11.5323680531624 ) );
#368 = VECTOR( '', #403, 1000.00000000000 );
#369 = COLOUR_RGB( '', 0.689999997600000, 0.689999997600000, 0.689999997600000 );
#370 = CARTESIAN_POINT( '', ( -10.0000000000000, 7.00000000000000, 5.77350269189626 ) );
#371 = VECTOR( '', #404, 1000.00000000000 );
#372 = COLOUR_RGB( '', 0.689999997600000, 0.689999997600000, 0.689999997600000 );
#373 = CARTESIAN_POINT( '', ( 10.0000000000000, 7.00000000000000, 5.77350269189626 ) );
#374 = VECTOR( '', #405, 1000.00000000000 );
#375 = COLOUR_RGB( '', 0.689999997600000, 0.689999997600000, 0.689999997600000 );
#376 = CARTESIAN_POINT( '', ( 0.000000000000000, 7.00000000000000, -11.5470053837925 ) );
#377 = VECTOR( '', #406, 1000.00000000000 );
#378 = COLOUR_RGB( '', 0.689999997600000, 0.689999997600000, 0.689999997600000 );
#379 = CARTESIAN_POINT( '', ( 0.000000000000000, 37.0000000000000, -3.23300000000000 ) );
#380 = AXIS2_PLACEMENT_3D( '', #407, #408, #409 );
#381 = COLOUR_RGB( '', 0.689999997600000, 0.689999997600000, 0.689999997600000 );
#382 = COLOUR_RGB( '', 0.689999997600000, 0.689999997600000, 0.689999997600000 );
#383 = DIRECTION( '', ( 0.000000000000000, 0.000000000000000, 1.00000000000000 ) );
#384 = DIRECTION( '', ( -0.0436055618630999, 0.998731565520054, -0.0251756828798256 ) );
#385 = DIRECTION( '', ( 0.000000000000000, 0.000000000000000, 1.00000000000000 ) );
#386 = DIRECTION( '', ( -0.0436055618630999, 0.998731565520054, 0.0251756828798256 ) );
#387 = DIRECTION( '', ( 0.866025403784439, 0.000000000000000, -0.500000000000000 ) );
#388 = DIRECTION( '', ( 0.000000000000000, 0.998731565520054, 0.0503513657596513 ) );
#389 = DIRECTION( '', ( 0.866025403784439, 0.000000000000000, -0.500000000000000 ) );
#390 = DIRECTION( '', ( 0.0436055618630999, 0.998731565520054, 0.0251756828798256 ) );
#391 = CARTESIAN_POINT( '', ( 0.000000000000000, 7.00000000000000, 0.000000000000000 ) );
#392 = DIRECTION( '', ( 0.000000000000000, -1.00000000000000, -0.000000000000000 ) );
#393 = DIRECTION( '', ( 0.000000000000000, 0.000000000000000, -1.00000000000000 ) );
#394 = CARTESIAN_POINT( '', ( 0.000000000000000, 36.2330000000000, 0.000000000000000 ) );
#395 = DIRECTION( '', ( 0.000000000000000, -1.00000000000000, -0.000000000000000 ) );
#396 = DIRECTION( '', ( 0.000000000000000, 0.000000000000000, -1.00000000000000 ) );
#397 = DIRECTION( '', ( -0.866025403784439, 0.000000000000000, 0.500000000000000 ) );
#398 = DIRECTION( '', ( -0.866025403784439, 0.000000000000000, -0.500000000000000 ) );
#399 = DIRECTION( '', ( 0.000000000000000, 0.000000000000000, -1.00000000000000 ) );
#400 = DIRECTION( '', ( 0.866025403784439, 0.000000000000000, 0.500000000000000 ) );
#401 = DIRECTION( '', ( -0.866025403784439, 0.000000000000000, -0.500000000000000 ) );
#402 = DIRECTION( '', ( 0.0436055618630999, 0.998731565520054, -0.0251756828798256 ) );
#403 = DIRECTION( '', ( 0.000000000000000, 0.998731565520054, -0.0503513657596513 ) );
#404 = DIRECTION( '', ( 0.866025403784439, 0.000000000000000, 0.500000000000000 ) );
#405 = DIRECTION( '', ( 0.000000000000000, 0.000000000000000, -1.00000000000000 ) );
#406 = DIRECTION( '', ( -0.866025403784439, 0.000000000000000, 0.500000000000000 ) );
#407 = CARTESIAN_POINT( '', ( 0.000000000000000, 37.0000000000000, 0.000000000000000 ) );
#408 = DIRECTION( '', ( 0.000000000000000, -1.00000000000000, -0.000000000000000 ) );
#409 = DIRECTION( '', ( 0.000000000000000, 0.000000000000000, -1.00000000000000 ) );
ENDSEC;
END-ISO-10303-21;
