ISO-10303-21;
HEADER;
FILE_DESCRIPTION( ( 'STEP AP214' ), '1' );
FILE_NAME( '//goodhand-server/Shared Folders/GoodHand Data/Kipp CAD/K0390/K0390.10X65.stp', '2020-12-07T10:14:33', ( '' ), ( '' ), ' ', 'PARTsolutions', ' ' );
FILE_SCHEMA( ( 'AUTOMOTIVE_DESIGN { 1 0 10303 214 1 1 1 1 }' ) );
ENDSEC;
DATA;
#1 = MECHANICAL_DESIGN_GEOMETRIC_PRESENTATION_REPRESENTATION( ' ', ( #10, #11, #12, #13, #14, #15, #16, #17, #18, #19, #20, #21, #22 ), #6 );
#2 = PRODUCT_DEFINITION_CONTEXT( '', #23, 'design' );
#3 = APPLICATION_PROTOCOL_DEFINITION( 'international standard', 'automotive_design', 2001, #23 );
#4 = PRODUCT_CATEGORY_RELATIONSHIP( 'NONE', 'NONE', #24, #25 );
#5 = SHAPE_DEFINITION_REPRESENTATION( #26, #27 );
#6 =  ( GEOMETRIC_REPRESENTATION_CONTEXT( 3 )GLOBAL_UNCERTAINTY_ASSIGNED_CONTEXT( ( #30 ) )GLOBAL_UNIT_ASSIGNED_CONTEXT( ( #32, #33, #34 ) )REPRESENTATION_CONTEXT( 'NONE', 'WORKSPACE' ) );
#10 = STYLED_ITEM( '', ( #36 ), #37 );
#11 = STYLED_ITEM( '', ( #38 ), #39 );
#12 = STYLED_ITEM( '', ( #40 ), #41 );
#13 = STYLED_ITEM( '', ( #42 ), #43 );
#14 = STYLED_ITEM( '', ( #44 ), #45 );
#15 = STYLED_ITEM( '', ( #46 ), #47 );
#16 = STYLED_ITEM( '', ( #48 ), #49 );
#17 = STYLED_ITEM( '', ( #50 ), #51 );
#18 = STYLED_ITEM( '', ( #52 ), #53 );
#19 = STYLED_ITEM( '', ( #54 ), #55 );
#20 = STYLED_ITEM( '', ( #56 ), #57 );
#21 = STYLED_ITEM( '', ( #58 ), #59 );
#22 = STYLED_ITEM( '', ( #60 ), #61 );
#23 = APPLICATION_CONTEXT( 'core data for automotive mechanical design processes' );
#24 = PRODUCT_CATEGORY( 'part', 'NONE' );
#25 = PRODUCT_RELATED_PRODUCT_CATEGORY( 'detail', ' ', ( #62 ) );
#26 = PRODUCT_DEFINITION_SHAPE( 'NONE', 'NONE', #63 );
#27 = ADVANCED_BREP_SHAPE_REPRESENTATION( '_K0390.10X65', ( #64, #65 ), #6 );
#30 = UNCERTAINTY_MEASURE_WITH_UNIT( LENGTH_MEASURE( 0.00100000000000000 ), #32, '', '' );
#32 =  ( CONVERSION_BASED_UNIT( 'MILLIMETRE', #68 )LENGTH_UNIT(  )NAMED_UNIT( #71 ) );
#33 =  ( NAMED_UNIT( #73 )PLANE_ANGLE_UNIT(  )SI_UNIT( $, .RADIAN. ) );
#34 =  ( NAMED_UNIT( #73 )SI_UNIT( $, .STERADIAN. )SOLID_ANGLE_UNIT(  ) );
#36 = PRESENTATION_STYLE_ASSIGNMENT( ( #79 ) );
#37 = ADVANCED_FACE( '', ( #80 ), #81, .T. );
#38 = PRESENTATION_STYLE_ASSIGNMENT( ( #82 ) );
#39 = ADVANCED_FACE( '', ( #83 ), #84, .F. );
#40 = PRESENTATION_STYLE_ASSIGNMENT( ( #85 ) );
#41 = ADVANCED_FACE( '', ( #86, #87 ), #88, .T. );
#42 = PRESENTATION_STYLE_ASSIGNMENT( ( #89 ) );
#43 = ADVANCED_FACE( '', ( #90 ), #91, .T. );
#44 = PRESENTATION_STYLE_ASSIGNMENT( ( #92 ) );
#45 = ADVANCED_FACE( '', ( #93, #94 ), #95, .T. );
#46 = PRESENTATION_STYLE_ASSIGNMENT( ( #96 ) );
#47 = ADVANCED_FACE( '', ( #97 ), #98, .F. );
#48 = PRESENTATION_STYLE_ASSIGNMENT( ( #99 ) );
#49 = ADVANCED_FACE( '', ( #100, #101 ), #102, .F. );
#50 = PRESENTATION_STYLE_ASSIGNMENT( ( #103 ) );
#51 = ADVANCED_FACE( '', ( #104, #105 ), #106, .T. );
#52 = PRESENTATION_STYLE_ASSIGNMENT( ( #107 ) );
#53 = ADVANCED_FACE( '', ( #108 ), #109, .F. );
#54 = PRESENTATION_STYLE_ASSIGNMENT( ( #110 ) );
#55 = ADVANCED_FACE( '', ( #111 ), #112, .F. );
#56 = PRESENTATION_STYLE_ASSIGNMENT( ( #113 ) );
#57 = ADVANCED_FACE( '', ( #114 ), #115, .T. );
#58 = PRESENTATION_STYLE_ASSIGNMENT( ( #116 ) );
#59 = ADVANCED_FACE( '', ( #117, #118 ), #119, .T. );
#60 = PRESENTATION_STYLE_ASSIGNMENT( ( #120 ) );
#61 = ADVANCED_FACE( '', ( #121, #122 ), #123, .T. );
#62 = PRODUCT( '_K0390.10X65', '_K0390.10X65', 'PART-_K0390.10X65-DESC', ( #124 ) );
#63 = PRODUCT_DEFINITION( 'NONE', 'NONE', #125, #2 );
#64 = MANIFOLD_SOLID_BREP( '_K0390.10X65', #126 );
#65 = AXIS2_PLACEMENT_3D( '', #127, #128, #129 );
#68 = LENGTH_MEASURE_WITH_UNIT( LENGTH_MEASURE( 1.00000000000000 ), #130 );
#71 = DIMENSIONAL_EXPONENTS( 1.00000000000000, 0.000000000000000, 0.000000000000000, 0.000000000000000, 0.000000000000000, 0.000000000000000, 0.000000000000000 );
#73 = DIMENSIONAL_EXPONENTS( 0.000000000000000, 0.000000000000000, 0.000000000000000, 0.000000000000000, 0.000000000000000, 0.000000000000000, 0.000000000000000 );
#79 = SURFACE_STYLE_USAGE( .BOTH., #131 );
#80 = FACE_OUTER_BOUND( '', #132, .T. );
#81 = CONICAL_SURFACE( '', #133, 4.08000000000000, 0.785398163400000 );
#82 = SURFACE_STYLE_USAGE( .BOTH., #134 );
#83 = FACE_OUTER_BOUND( '', #135, .T. );
#84 = PLANE( '', #136 );
#85 = SURFACE_STYLE_USAGE( .BOTH., #137 );
#86 = FACE_OUTER_BOUND( '', #138, .T. );
#87 = FACE_OUTER_BOUND( '', #139, .T. );
#88 = CYLINDRICAL_SURFACE( '', #140, 5.00000000000000 );
#89 = SURFACE_STYLE_USAGE( .BOTH., #141 );
#90 = FACE_OUTER_BOUND( '', #142, .T. );
#91 = CONICAL_SURFACE( '', #143, 4.08000000000000, 0.785398163400000 );
#92 = SURFACE_STYLE_USAGE( .BOTH., #144 );
#93 = FACE_BOUND( '', #145, .T. );
#94 = FACE_OUTER_BOUND( '', #146, .T. );
#95 = CONICAL_SURFACE( '', #147, 5.00000000000000, 1.01679700410000 );
#96 = SURFACE_STYLE_USAGE( .BOTH., #148 );
#97 = FACE_OUTER_BOUND( '', #149, .T. );
#98 = PLANE( '', #150 );
#99 = SURFACE_STYLE_USAGE( .BOTH., #151 );
#100 = FACE_OUTER_BOUND( '', #152, .T. );
#101 = FACE_BOUND( '', #153, .T. );
#102 = PLANE( '', #154 );
#103 = SURFACE_STYLE_USAGE( .BOTH., #155 );
#104 = FACE_BOUND( '', #156, .T. );
#105 = FACE_OUTER_BOUND( '', #157, .T. );
#106 = SPHERICAL_SURFACE( '', #158, 6.70960000000000 );
#107 = SURFACE_STYLE_USAGE( .BOTH., #159 );
#108 = FACE_OUTER_BOUND( '', #160, .T. );
#109 = PLANE( '', #161 );
#110 = SURFACE_STYLE_USAGE( .BOTH., #162 );
#111 = FACE_OUTER_BOUND( '', #163, .T. );
#112 = PLANE( '', #164 );
#113 = SURFACE_STYLE_USAGE( .BOTH., #165 );
#114 = FACE_OUTER_BOUND( '', #166, .T. );
#115 = PLANE( '', #167 );
#116 = SURFACE_STYLE_USAGE( .BOTH., #168 );
#117 = FACE_OUTER_BOUND( '', #169, .T. );
#118 = FACE_OUTER_BOUND( '', #170, .T. );
#119 = CYLINDRICAL_SURFACE( '', #171, 3.60000000000000 );
#120 = SURFACE_STYLE_USAGE( .BOTH., #172 );
#121 = FACE_OUTER_BOUND( '', #173, .T. );
#122 = FACE_OUTER_BOUND( '', #174, .T. );
#123 = CYLINDRICAL_SURFACE( '', #175, 4.00000000000000 );
#124 = PRODUCT_CONTEXT( '', #23, 'mechanical' );
#125 = PRODUCT_DEFINITION_FORMATION_WITH_SPECIFIED_SOURCE( ' ', 'NONE', #62, .NOT_KNOWN. );
#126 = CLOSED_SHELL( '', ( #39, #53, #51, #61, #49, #59, #45, #41, #43, #55, #37, #47, #57 ) );
#127 = CARTESIAN_POINT( '', ( 0.000000000000000, 0.000000000000000, 0.000000000000000 ) );
#128 = DIRECTION( '', ( 0.000000000000000, 0.000000000000000, 1.00000000000000 ) );
#129 = DIRECTION( '', ( 1.00000000000000, 0.000000000000000, 0.000000000000000 ) );
#130 =  ( LENGTH_UNIT(  )NAMED_UNIT( #71 )SI_UNIT( .MILLI., .METRE. ) );
#131 = SURFACE_SIDE_STYLE( '', ( #177 ) );
#132 = EDGE_LOOP( '', ( #178, #179, #180, #181 ) );
#133 = AXIS2_PLACEMENT_3D( '', #182, #183, #184 );
#134 = SURFACE_SIDE_STYLE( '', ( #185 ) );
#135 = EDGE_LOOP( '', ( #186, #187, #188, #189, #190, #191 ) );
#136 = AXIS2_PLACEMENT_3D( '', #192, #193, #194 );
#137 = SURFACE_SIDE_STYLE( '', ( #195 ) );
#138 = EDGE_LOOP( '', ( #196 ) );
#139 = EDGE_LOOP( '', ( #197, #198, #199, #200, #201, #202, #203, #204 ) );
#140 = AXIS2_PLACEMENT_3D( '', #205, #206, #207 );
#141 = SURFACE_SIDE_STYLE( '', ( #208 ) );
#142 = EDGE_LOOP( '', ( #209, #210, #211, #212 ) );
#143 = AXIS2_PLACEMENT_3D( '', #213, #214, #215 );
#144 = SURFACE_SIDE_STYLE( '', ( #216 ) );
#145 = EDGE_LOOP( '', ( #217 ) );
#146 = EDGE_LOOP( '', ( #218 ) );
#147 = AXIS2_PLACEMENT_3D( '', #219, #220, #221 );
#148 = SURFACE_SIDE_STYLE( '', ( #222 ) );
#149 = EDGE_LOOP( '', ( #223, #224 ) );
#150 = AXIS2_PLACEMENT_3D( '', #225, #226, #227 );
#151 = SURFACE_SIDE_STYLE( '', ( #228 ) );
#152 = EDGE_LOOP( '', ( #229 ) );
#153 = EDGE_LOOP( '', ( #230 ) );
#154 = AXIS2_PLACEMENT_3D( '', #231, #232, #233 );
#155 = SURFACE_SIDE_STYLE( '', ( #234 ) );
#156 = VERTEX_LOOP( '', #235 );
#157 = EDGE_LOOP( '', ( #236 ) );
#158 = AXIS2_PLACEMENT_3D( '', #237, #238, #239 );
#159 = SURFACE_SIDE_STYLE( '', ( #240 ) );
#160 = EDGE_LOOP( '', ( #241, #242, #243, #244, #245, #246 ) );
#161 = AXIS2_PLACEMENT_3D( '', #247, #248, #249 );
#162 = SURFACE_SIDE_STYLE( '', ( #250 ) );
#163 = EDGE_LOOP( '', ( #251, #252 ) );
#164 = AXIS2_PLACEMENT_3D( '', #253, #254, #255 );
#165 = SURFACE_SIDE_STYLE( '', ( #256 ) );
#166 = EDGE_LOOP( '', ( #257, #258, #259, #260 ) );
#167 = AXIS2_PLACEMENT_3D( '', #261, #262, #263 );
#168 = SURFACE_SIDE_STYLE( '', ( #264 ) );
#169 = EDGE_LOOP( '', ( #265 ) );
#170 = EDGE_LOOP( '', ( #266 ) );
#171 = AXIS2_PLACEMENT_3D( '', #267, #268, #269 );
#172 = SURFACE_SIDE_STYLE( '', ( #270 ) );
#173 = EDGE_LOOP( '', ( #271 ) );
#174 = EDGE_LOOP( '', ( #272 ) );
#175 = AXIS2_PLACEMENT_3D( '', #273, #274, #275 );
#177 = SURFACE_STYLE_FILL_AREA( #276 );
#178 = ORIENTED_EDGE( '', *, *, #277, .F. );
#179 = ORIENTED_EDGE( '', *, *, #278, .T. );
#180 = ORIENTED_EDGE( '', *, *, #279, .T. );
#181 = ORIENTED_EDGE( '', *, *, #280, .T. );
#182 = CARTESIAN_POINT( '', ( 1.38777878078145E-14, 1.28618862942302E-14, 0.000000000000000 ) );
#183 = DIRECTION( '', ( 1.00000000000000, -6.12323399573677E-17, -0.000000000000000 ) );
#184 = DIRECTION( '', ( 6.12323399573677E-17, 1.00000000000000, 0.000000000000000 ) );
#185 = SURFACE_STYLE_FILL_AREA( #281 );
#186 = ORIENTED_EDGE( '', *, *, #282, .F. );
#187 = ORIENTED_EDGE( '', *, *, #283, .T. );
#188 = ORIENTED_EDGE( '', *, *, #284, .F. );
#189 = ORIENTED_EDGE( '', *, *, #285, .F. );
#190 = ORIENTED_EDGE( '', *, *, #286, .F. );
#191 = ORIENTED_EDGE( '', *, *, #287, .F. );
#192 = CARTESIAN_POINT( '', ( 3.00000000000001, 0.900000000000013, 10.5000000000000 ) );
#193 = DIRECTION( '', ( 0.000000000000000, 1.00000000000000, 0.000000000000000 ) );
#194 = DIRECTION( '', ( 0.000000000000000, -0.000000000000000, 1.00000000000000 ) );
#195 = SURFACE_STYLE_FILL_AREA( #288 );
#196 = ORIENTED_EDGE( '', *, *, #289, .F. );
#197 = ORIENTED_EDGE( '', *, *, #277, .T. );
#198 = ORIENTED_EDGE( '', *, *, #290, .T. );
#199 = ORIENTED_EDGE( '', *, *, #291, .F. );
#200 = ORIENTED_EDGE( '', *, *, #285, .T. );
#201 = ORIENTED_EDGE( '', *, *, #292, .T. );
#202 = ORIENTED_EDGE( '', *, *, #287, .T. );
#203 = ORIENTED_EDGE( '', *, *, #293, .F. );
#204 = ORIENTED_EDGE( '', *, *, #294, .T. );
#205 = CARTESIAN_POINT( '', ( 65.0000000000000, 8.88178419700125E-15, 0.000000000000000 ) );
#206 = DIRECTION( '', ( -1.00000000000000, 6.12323399573677E-17, 0.000000000000000 ) );
#207 = DIRECTION( '', ( 6.12323399573677E-17, 1.00000000000000, 0.000000000000000 ) );
#208 = SURFACE_STYLE_FILL_AREA( #295 );
#209 = ORIENTED_EDGE( '', *, *, #296, .T. );
#210 = ORIENTED_EDGE( '', *, *, #282, .T. );
#211 = ORIENTED_EDGE( '', *, *, #292, .F. );
#212 = ORIENTED_EDGE( '', *, *, #284, .T. );
#213 = CARTESIAN_POINT( '', ( 1.38777878078145E-14, 1.28618862942302E-14, 0.000000000000000 ) );
#214 = DIRECTION( '', ( 1.00000000000000, -6.12323399573677E-17, -0.000000000000000 ) );
#215 = DIRECTION( '', ( 6.12323399573677E-17, 1.00000000000000, 0.000000000000000 ) );
#216 = SURFACE_STYLE_FILL_AREA( #297 );
#217 = ORIENTED_EDGE( '', *, *, #298, .F. );
#218 = ORIENTED_EDGE( '', *, *, #289, .T. );
#219 = CARTESIAN_POINT( '', ( 56.0000000000000, 9.43287525661756E-15, 0.000000000000000 ) );
#220 = DIRECTION( '', ( -1.00000000000000, 6.12323399573677E-17, -0.000000000000000 ) );
#221 = DIRECTION( '', ( -6.12323399573677E-17, -1.00000000000000, 0.000000000000000 ) );
#222 = SURFACE_STYLE_FILL_AREA( #299 );
#223 = ORIENTED_EDGE( '', *, *, #296, .F. );
#224 = ORIENTED_EDGE( '', *, *, #283, .F. );
#225 = CARTESIAN_POINT( '', ( 1.40859407416890E-14, 1.28618862942302E-14, 0.000000000000000 ) );
#226 = DIRECTION( '', ( 1.00000000000000, -6.12323399573677E-17, -0.000000000000000 ) );
#227 = DIRECTION( '', ( 6.12323399573677E-17, 1.00000000000000, 0.000000000000000 ) );
#228 = SURFACE_STYLE_FILL_AREA( #300 );
#229 = ORIENTED_EDGE( '', *, *, #301, .F. );
#230 = ORIENTED_EDGE( '', *, *, #302, .T. );
#231 = CARTESIAN_POINT( '', ( 60.5000000000000, 3.60000000000001, 0.000000000000000 ) );
#232 = DIRECTION( '', ( 1.00000000000000, -6.12323399573677E-17, -0.000000000000000 ) );
#233 = DIRECTION( '', ( 6.12323399573677E-17, 1.00000000000000, 0.000000000000000 ) );
#234 = SURFACE_STYLE_FILL_AREA( #303 );
#235 = VERTEX_POINT( '', #304 );
#236 = ORIENTED_EDGE( '', *, *, #305, .T. );
#237 = CARTESIAN_POINT( '', ( 58.2903999999999, -9.10729824887824E-15, 0.000000000000000 ) );
#238 = DIRECTION( '', ( 1.00000000000000, 0.000000000000000, 0.000000000000000 ) );
#239 = DIRECTION( '', ( 0.000000000000000, 1.00000000000000, 0.000000000000000 ) );
#240 = SURFACE_STYLE_FILL_AREA( #306 );
#241 = ORIENTED_EDGE( '', *, *, #307, .T. );
#242 = ORIENTED_EDGE( '', *, *, #278, .F. );
#243 = ORIENTED_EDGE( '', *, *, #294, .F. );
#244 = ORIENTED_EDGE( '', *, *, #308, .F. );
#245 = ORIENTED_EDGE( '', *, *, #290, .F. );
#246 = ORIENTED_EDGE( '', *, *, #280, .F. );
#247 = CARTESIAN_POINT( '', ( 3.00000000000001, -0.899999999999987, -10.5000000000000 ) );
#248 = DIRECTION( '', ( 0.000000000000000, -1.00000000000000, 0.000000000000000 ) );
#249 = DIRECTION( '', ( 0.000000000000000, 0.000000000000000, -1.00000000000000 ) );
#250 = SURFACE_STYLE_FILL_AREA( #309 );
#251 = ORIENTED_EDGE( '', *, *, #279, .F. );
#252 = ORIENTED_EDGE( '', *, *, #307, .F. );
#253 = CARTESIAN_POINT( '', ( 1.40859407416890E-14, 1.28618862942302E-14, 0.000000000000000 ) );
#254 = DIRECTION( '', ( 1.00000000000000, -6.12323399573677E-17, -0.000000000000000 ) );
#255 = DIRECTION( '', ( 6.12323399573677E-17, 1.00000000000000, 0.000000000000000 ) );
#256 = SURFACE_STYLE_FILL_AREA( #310 );
#257 = ORIENTED_EDGE( '', *, *, #291, .T. );
#258 = ORIENTED_EDGE( '', *, *, #308, .T. );
#259 = ORIENTED_EDGE( '', *, *, #293, .T. );
#260 = ORIENTED_EDGE( '', *, *, #286, .T. );
#261 = CARTESIAN_POINT( '', ( 3.00000000000001, -0.000000000000000, -0.000000000000000 ) );
#262 = DIRECTION( '', ( -1.00000000000000, 0.000000000000000, 0.000000000000000 ) );
#263 = DIRECTION( '', ( 0.000000000000000, 0.000000000000000, 1.00000000000000 ) );
#264 = SURFACE_STYLE_FILL_AREA( #311 );
#265 = ORIENTED_EDGE( '', *, *, #302, .F. );
#266 = ORIENTED_EDGE( '', *, *, #298, .T. );
#267 = CARTESIAN_POINT( '', ( 65.0000000000000, 8.88178419700125E-15, 0.000000000000000 ) );
#268 = DIRECTION( '', ( -1.00000000000000, 6.12323399573677E-17, 0.000000000000000 ) );
#269 = DIRECTION( '', ( 6.12323399573677E-17, 1.00000000000000, 0.000000000000000 ) );
#270 = SURFACE_STYLE_FILL_AREA( #312 );
#271 = ORIENTED_EDGE( '', *, *, #305, .F. );
#272 = ORIENTED_EDGE( '', *, *, #301, .T. );
#273 = CARTESIAN_POINT( '', ( 65.0000000000000, 8.88178419700125E-15, 0.000000000000000 ) );
#274 = DIRECTION( '', ( -1.00000000000000, 6.12323399573677E-17, 0.000000000000000 ) );
#275 = DIRECTION( '', ( 6.12323399573677E-17, 1.00000000000000, 0.000000000000000 ) );
#276 = FILL_AREA_STYLE( '', ( #313 ) );
#277 = EDGE_CURVE( '', #314, #315, #316, .T. );
#278 = EDGE_CURVE( '', #314, #317, #318, .T. );
#279 = EDGE_CURVE( '', #317, #319, #320, .T. );
#280 = EDGE_CURVE( '', #319, #315, #321, .T. );
#281 = FILL_AREA_STYLE( '', ( #322 ) );
#282 = EDGE_CURVE( '', #323, #324, #325, .T. );
#283 = EDGE_CURVE( '', #323, #326, #327, .T. );
#284 = EDGE_CURVE( '', #328, #326, #329, .T. );
#285 = EDGE_CURVE( '', #330, #328, #331, .F. );
#286 = EDGE_CURVE( '', #332, #330, #333, .T. );
#287 = EDGE_CURVE( '', #324, #332, #334, .T. );
#288 = FILL_AREA_STYLE( '', ( #335 ) );
#289 = EDGE_CURVE( '', #336, #336, #337, .T. );
#290 = EDGE_CURVE( '', #315, #338, #339, .T. );
#291 = EDGE_CURVE( '', #330, #338, #340, .T. );
#292 = EDGE_CURVE( '', #328, #324, #341, .T. );
#293 = EDGE_CURVE( '', #342, #332, #343, .T. );
#294 = EDGE_CURVE( '', #342, #314, #344, .F. );
#295 = FILL_AREA_STYLE( '', ( #345 ) );
#296 = EDGE_CURVE( '', #326, #323, #346, .T. );
#297 = FILL_AREA_STYLE( '', ( #347 ) );
#298 = EDGE_CURVE( '', #348, #348, #349, .T. );
#299 = FILL_AREA_STYLE( '', ( #350 ) );
#300 = FILL_AREA_STYLE( '', ( #351 ) );
#301 = EDGE_CURVE( '', #352, #352, #353, .T. );
#302 = EDGE_CURVE( '', #354, #354, #355, .T. );
#303 = FILL_AREA_STYLE( '', ( #356 ) );
#304 = CARTESIAN_POINT( '', ( 65.0000000000000, -9.10729824887824E-15, 0.000000000000000 ) );
#305 = EDGE_CURVE( '', #357, #357, #358, .T. );
#306 = FILL_AREA_STYLE( '', ( #359 ) );
#307 = EDGE_CURVE( '', #319, #317, #360, .T. );
#308 = EDGE_CURVE( '', #338, #342, #361, .T. );
#309 = FILL_AREA_STYLE( '', ( #362 ) );
#310 = FILL_AREA_STYLE( '', ( #363 ) );
#311 = FILL_AREA_STYLE( '', ( #364 ) );
#312 = FILL_AREA_STYLE( '', ( #365 ) );
#313 = FILL_AREA_STYLE_COLOUR( '', #366 );
#314 = VERTEX_POINT( '', #367 );
#315 = VERTEX_POINT( '', #368 );
#316 = CIRCLE( '', #369, 5.00000000000000 );
#317 = VERTEX_POINT( '', #370 );
#318 = B_SPLINE_CURVE_WITH_KNOTS( '', 3, ( #371, #372, #373, #374 ), .UNSPECIFIED., .F., .F., ( 4, 4 ), ( 0.00855302721908256, 0.00986748988713588 ), .UNSPECIFIED. );
#319 = VERTEX_POINT( '', #375 );
#320 = CIRCLE( '', #376, 4.08000000000000 );
#321 = B_SPLINE_CURVE_WITH_KNOTS( '', 3, ( #377, #378, #379, #380 ), .UNSPECIFIED., .F., .F., ( 4, 4 ), ( 0.0201757967681981, 0.0214894077203397 ), .UNSPECIFIED. );
#322 = FILL_AREA_STYLE_COLOUR( '', #381 );
#323 = VERTEX_POINT( '', #382 );
#324 = VERTEX_POINT( '', #383 );
#325 = B_SPLINE_CURVE_WITH_KNOTS( '', 3, ( #384, #385, #386, #387 ), .UNSPECIFIED., .F., .F., ( 4, 4 ), ( 0.0201757967681981, 0.0214894077203397 ), .UNSPECIFIED. );
#326 = VERTEX_POINT( '', #388 );
#327 = LINE( '', #389, #390 );
#328 = VERTEX_POINT( '', #391 );
#329 = B_SPLINE_CURVE_WITH_KNOTS( '', 3, ( #392, #393, #394, #395 ), .UNSPECIFIED., .F., .F., ( 4, 4 ), ( 0.00855302721908257, 0.00986748988713588 ), .UNSPECIFIED. );
#330 = VERTEX_POINT( '', #396 );
#331 = LINE( '', #397, #398 );
#332 = VERTEX_POINT( '', #399 );
#333 = LINE( '', #400, #401 );
#334 = LINE( '', #402, #403 );
#335 = FILL_AREA_STYLE_COLOUR( '', #404 );
#336 = VERTEX_POINT( '', #405 );
#337 = CIRCLE( '', #406, 5.00000000000000 );
#338 = VERTEX_POINT( '', #407 );
#339 = LINE( '', #408, #409 );
#340 = CIRCLE( '', #410, 5.00000000000000 );
#341 = CIRCLE( '', #411, 5.00000000000000 );
#342 = VERTEX_POINT( '', #412 );
#343 = CIRCLE( '', #413, 5.00000000000000 );
#344 = LINE( '', #414, #415 );
#345 = FILL_AREA_STYLE_COLOUR( '', #416 );
#346 = CIRCLE( '', #417, 4.08000000000000 );
#347 = FILL_AREA_STYLE_COLOUR( '', #418 );
#348 = VERTEX_POINT( '', #419 );
#349 = CIRCLE( '', #420, 3.60000000000000 );
#350 = FILL_AREA_STYLE_COLOUR( '', #421 );
#351 = FILL_AREA_STYLE_COLOUR( '', #422 );
#352 = VERTEX_POINT( '', #423 );
#353 = CIRCLE( '', #424, 4.00000000000000 );
#354 = VERTEX_POINT( '', #425 );
#355 = CIRCLE( '', #426, 3.60000000000000 );
#356 = FILL_AREA_STYLE_COLOUR( '', #427 );
#357 = VERTEX_POINT( '', #428 );
#358 = CIRCLE( '', #429, 4.00000000000000 );
#359 = FILL_AREA_STYLE_COLOUR( '', #430 );
#360 = LINE( '', #431, #432 );
#361 = LINE( '', #433, #434 );
#362 = FILL_AREA_STYLE_COLOUR( '', #435 );
#363 = FILL_AREA_STYLE_COLOUR( '', #436 );
#364 = FILL_AREA_STYLE_COLOUR( '', #437 );
#365 = FILL_AREA_STYLE_COLOUR( '', #438 );
#366 = COLOUR_RGB( '', 0.689999997600000, 0.689999997600000, 0.689999997600000 );
#367 = CARTESIAN_POINT( '', ( 0.920000000000018, -0.899999999999983, 4.91833305094317 ) );
#368 = CARTESIAN_POINT( '', ( 0.920000000000018, -0.899999999999983, -4.91833305094317 ) );
#369 = AXIS2_PLACEMENT_3D( '', #439, #440, #441 );
#370 = CARTESIAN_POINT( '', ( 1.42108547152020E-14, -0.899999999999987, 3.97949745570970 ) );
#371 = CARTESIAN_POINT( '', ( 0.920000000000018, -0.899999999999987, 4.91833305094317 ) );
#372 = CARTESIAN_POINT( '', ( 0.612739261072135, -0.899999999999987, 4.60597037059464 ) );
#373 = CARTESIAN_POINT( '', ( 0.305935608496540, -0.899999999999987, 4.29315949383336 ) );
#374 = CARTESIAN_POINT( '', ( 1.22434683176157E-14, -0.899999999999987, 3.97949745570970 ) );
#375 = CARTESIAN_POINT( '', ( 1.42108547152020E-14, -0.899999999999987, -3.97949745570970 ) );
#376 = AXIS2_PLACEMENT_3D( '', #442, #443, #444 );
#377 = CARTESIAN_POINT( '', ( 1.37949482414820E-14, -0.899999999999987, -3.97949745570970 ) );
#378 = CARTESIAN_POINT( '', ( 0.305938770650485, -0.899999999999987, -4.29316273584777 ) );
#379 = CARTESIAN_POINT( '', ( 0.612741841782431, -0.899999999999987, -4.60597299415659 ) );
#380 = CARTESIAN_POINT( '', ( 0.920000000000019, -0.899999999999987, -4.91833305094317 ) );
#381 = COLOUR_RGB( '', 0.689999997600000, 0.689999997600000, 0.689999997600000 );
#382 = CARTESIAN_POINT( '', ( 1.42108547152020E-14, 0.900000000000013, 3.97949745570970 ) );
#383 = CARTESIAN_POINT( '', ( 0.920000000000018, 0.900000000000017, 4.91833305094317 ) );
#384 = CARTESIAN_POINT( '', ( 1.42917761689114E-14, 0.900000000000013, 3.97949745570970 ) );
#385 = CARTESIAN_POINT( '', ( 0.305938770650485, 0.900000000000013, 4.29316273584777 ) );
#386 = CARTESIAN_POINT( '', ( 0.612741841782430, 0.900000000000013, 4.60597299415659 ) );
#387 = CARTESIAN_POINT( '', ( 0.920000000000016, 0.900000000000013, 4.91833305094317 ) );
#388 = CARTESIAN_POINT( '', ( 1.42108547152020E-14, 0.900000000000013, -3.97949745570970 ) );
#389 = CARTESIAN_POINT( '', ( 1.42108547152020E-14, 0.900000000000013, 10.5000000000000 ) );
#390 = VECTOR( '', #445, 1000.00000000000 );
#391 = CARTESIAN_POINT( '', ( 0.920000000000018, 0.900000000000017, -4.91833305094317 ) );
#392 = CARTESIAN_POINT( '', ( 0.920000000000018, 0.900000000000013, -4.91833305094317 ) );
#393 = CARTESIAN_POINT( '', ( 0.612739261072136, 0.900000000000013, -4.60597037059464 ) );
#394 = CARTESIAN_POINT( '', ( 0.305935608496542, 0.900000000000013, -4.29315949383336 ) );
#395 = CARTESIAN_POINT( '', ( 1.49051969899573E-14, 0.900000000000013, -3.97949745570970 ) );
#396 = CARTESIAN_POINT( '', ( 3.00000000000002, 0.900000000000013, -4.91833305094317 ) );
#397 = CARTESIAN_POINT( '', ( 65.0000000000000, 0.900000000000013, -4.91833305094317 ) );
#398 = VECTOR( '', #446, 1000.00000000000 );
#399 = CARTESIAN_POINT( '', ( 3.00000000000002, 0.900000000000013, 4.91833305094317 ) );
#400 = CARTESIAN_POINT( '', ( 3.00000000000001, 0.900000000000013, 10.5000000000000 ) );
#401 = VECTOR( '', #447, 1000.00000000000 );
#402 = CARTESIAN_POINT( '', ( 65.0000000000000, 0.900000000000013, 4.91833305094317 ) );
#403 = VECTOR( '', #448, 1000.00000000000 );
#404 = COLOUR_RGB( '', 0.689999997600000, 0.689999997600000, 0.689999997600000 );
#405 = CARTESIAN_POINT( '', ( 56.0000000000000, 5.00000000000001, 0.000000000000000 ) );
#406 = AXIS2_PLACEMENT_3D( '', #449, #450, #451 );
#407 = CARTESIAN_POINT( '', ( 3.00000000000002, -0.899999999999987, -4.91833305094317 ) );
#408 = CARTESIAN_POINT( '', ( 65.0000000000000, -0.899999999999987, -4.91833305094317 ) );
#409 = VECTOR( '', #452, 1000.00000000000 );
#410 = AXIS2_PLACEMENT_3D( '', #453, #454, #455 );
#411 = AXIS2_PLACEMENT_3D( '', #456, #457, #458 );
#412 = CARTESIAN_POINT( '', ( 3.00000000000002, -0.899999999999987, 4.91833305094317 ) );
#413 = AXIS2_PLACEMENT_3D( '', #459, #460, #461 );
#414 = CARTESIAN_POINT( '', ( 65.0000000000000, -0.899999999999987, 4.91833305094317 ) );
#415 = VECTOR( '', #462, 1000.00000000000 );
#416 = COLOUR_RGB( '', 0.689999997600000, 0.689999997600000, 0.689999997600000 );
#417 = AXIS2_PLACEMENT_3D( '', #463, #464, #465 );
#418 = COLOUR_RGB( '', 0.689999997600000, 0.689999997600000, 0.689999997600000 );
#419 = CARTESIAN_POINT( '', ( 56.8660700000000, 3.60000000000001, 0.000000000000000 ) );
#420 = AXIS2_PLACEMENT_3D( '', #466, #467, #468 );
#421 = COLOUR_RGB( '', 0.689999997600000, 0.689999997600000, 0.689999997600000 );
#422 = COLOUR_RGB( '', 0.689999997600000, 0.689999997600000, 0.689999997600000 );
#423 = CARTESIAN_POINT( '', ( 60.5000000000000, 4.00000000000001, 0.000000000000000 ) );
#424 = AXIS2_PLACEMENT_3D( '', #469, #470, #471 );
#425 = CARTESIAN_POINT( '', ( 60.5000000000000, 3.60000000000001, 0.000000000000000 ) );
#426 = AXIS2_PLACEMENT_3D( '', #472, #473, #474 );
#427 = COLOUR_RGB( '', 0.689999997600000, 0.689999997600000, 0.689999997600000 );
#428 = CARTESIAN_POINT( '', ( 63.6773037637589, 4.00000000000001, 0.000000000000000 ) );
#429 = AXIS2_PLACEMENT_3D( '', #475, #476, #477 );
#430 = COLOUR_RGB( '', 0.689999997600000, 0.689999997600000, 0.689999997600000 );
#431 = CARTESIAN_POINT( '', ( 1.42108547152020E-14, -0.899999999999987, -10.5000000000000 ) );
#432 = VECTOR( '', #478, 1000.00000000000 );
#433 = CARTESIAN_POINT( '', ( 3.00000000000001, -0.899999999999987, -10.5000000000000 ) );
#434 = VECTOR( '', #479, 1000.00000000000 );
#435 = COLOUR_RGB( '', 0.689999997600000, 0.689999997600000, 0.689999997600000 );
#436 = COLOUR_RGB( '', 0.689999997600000, 0.689999997600000, 0.689999997600000 );
#437 = COLOUR_RGB( '', 0.689999997600000, 0.689999997600000, 0.689999997600000 );
#438 = COLOUR_RGB( '', 0.689999997600000, 0.689999997600000, 0.689999997600000 );
#439 = CARTESIAN_POINT( '', ( 0.920000000000018, 1.28055525414694E-14, 0.000000000000000 ) );
#440 = DIRECTION( '', ( 1.00000000000000, -6.12323399573677E-17, -0.000000000000000 ) );
#441 = DIRECTION( '', ( 6.12323399573677E-17, 1.00000000000000, 0.000000000000000 ) );
#442 = CARTESIAN_POINT( '', ( 1.38777878078145E-14, 1.28618862942302E-14, 0.000000000000000 ) );
#443 = DIRECTION( '', ( 1.00000000000000, -6.12323399573677E-17, -0.000000000000000 ) );
#444 = DIRECTION( '', ( 6.12323399573677E-17, 1.00000000000000, 0.000000000000000 ) );
#445 = DIRECTION( '', ( 0.000000000000000, 0.000000000000000, -1.00000000000000 ) );
#446 = DIRECTION( '', ( 1.00000000000000, -6.12323399573677E-17, -0.000000000000000 ) );
#447 = DIRECTION( '', ( 0.000000000000000, 0.000000000000000, -1.00000000000000 ) );
#448 = DIRECTION( '', ( 1.00000000000000, -6.12323399573677E-17, -0.000000000000000 ) );
#449 = CARTESIAN_POINT( '', ( 56.0000000000000, 9.43287525661756E-15, 0.000000000000000 ) );
#450 = DIRECTION( '', ( 1.00000000000000, -6.12323399573677E-17, -0.000000000000000 ) );
#451 = DIRECTION( '', ( 6.12323399573677E-17, 1.00000000000000, 0.000000000000000 ) );
#452 = DIRECTION( '', ( 1.00000000000000, -6.12323399573677E-17, -0.000000000000000 ) );
#453 = CARTESIAN_POINT( '', ( 3.00000000000002, 1.26781892743580E-14, 0.000000000000000 ) );
#454 = DIRECTION( '', ( -1.00000000000000, 0.000000000000000, 0.000000000000000 ) );
#455 = DIRECTION( '', ( 0.000000000000000, 0.000000000000000, 1.00000000000000 ) );
#456 = CARTESIAN_POINT( '', ( 0.920000000000018, 1.28055525414694E-14, 0.000000000000000 ) );
#457 = DIRECTION( '', ( 1.00000000000000, -6.12323399573677E-17, -0.000000000000000 ) );
#458 = DIRECTION( '', ( 6.12323399573677E-17, 1.00000000000000, 0.000000000000000 ) );
#459 = CARTESIAN_POINT( '', ( 3.00000000000002, 1.26781892743580E-14, 0.000000000000000 ) );
#460 = DIRECTION( '', ( -1.00000000000000, 0.000000000000000, 0.000000000000000 ) );
#461 = DIRECTION( '', ( 0.000000000000000, 0.000000000000000, 1.00000000000000 ) );
#462 = DIRECTION( '', ( 1.00000000000000, -6.12323399573677E-17, -0.000000000000000 ) );
#463 = CARTESIAN_POINT( '', ( 1.38777878078145E-14, 1.28618862942302E-14, 0.000000000000000 ) );
#464 = DIRECTION( '', ( 1.00000000000000, -6.12323399573677E-17, -0.000000000000000 ) );
#465 = DIRECTION( '', ( 6.12323399573677E-17, 1.00000000000000, 0.000000000000000 ) );
#466 = CARTESIAN_POINT( '', ( 56.8660700000000, 9.37984376395068E-15, 0.000000000000000 ) );
#467 = DIRECTION( '', ( 1.00000000000000, -6.12323399573677E-17, -0.000000000000000 ) );
#468 = DIRECTION( '', ( 6.12323399573677E-17, 1.00000000000000, 0.000000000000000 ) );
#469 = CARTESIAN_POINT( '', ( 60.5000000000000, 9.15732972680941E-15, 0.000000000000000 ) );
#470 = DIRECTION( '', ( 1.00000000000000, -6.12323399573677E-17, -0.000000000000000 ) );
#471 = DIRECTION( '', ( 6.12323399573677E-17, 1.00000000000000, 0.000000000000000 ) );
#472 = CARTESIAN_POINT( '', ( 60.5000000000000, 9.15732972680941E-15, 0.000000000000000 ) );
#473 = DIRECTION( '', ( 1.00000000000000, -6.12323399573677E-17, -0.000000000000000 ) );
#474 = DIRECTION( '', ( 6.12323399573677E-17, 1.00000000000000, 0.000000000000000 ) );
#475 = CARTESIAN_POINT( '', ( 63.6773037637589, 8.96277598259910E-15, 0.000000000000000 ) );
#476 = DIRECTION( '', ( 1.00000000000000, -6.12323399573677E-17, -0.000000000000000 ) );
#477 = DIRECTION( '', ( 6.12323399573677E-17, 1.00000000000000, 0.000000000000000 ) );
#478 = DIRECTION( '', ( 0.000000000000000, 0.000000000000000, 1.00000000000000 ) );
#479 = DIRECTION( '', ( 0.000000000000000, 0.000000000000000, 1.00000000000000 ) );
ENDSEC;
END-ISO-10303-21;
