ISO-10303-21;
HEADER;
FILE_DESCRIPTION( ( 'STEP AP214' ), '1' );
FILE_NAME( '//goodhand-server/Shared Folders/GoodHand Data/Kipp CAD/K0163/K0163.1120X12.stp', '2020-11-26T10:29:44', ( '' ), ( '' ), ' ', 'PARTsolutions', ' ' );
FILE_SCHEMA( ( 'AUTOMOTIVE_DESIGN { 1 0 10303 214 1 1 1 1 }' ) );
ENDSEC;
DATA;
#1 = MECHANICAL_DESIGN_GEOMETRIC_PRESENTATION_REPRESENTATION( ' ', ( #10, #11, #12, #13, #14, #15, #16, #17, #18, #19, #20, #21, #22, #23, #24 ), #6 );
#2 = PRODUCT_DEFINITION_CONTEXT( '', #25, 'design' );
#3 = APPLICATION_PROTOCOL_DEFINITION( 'international standard', 'automotive_design', 2001, #25 );
#4 = PRODUCT_CATEGORY_RELATIONSHIP( 'NONE', 'NONE', #26, #27 );
#5 = SHAPE_DEFINITION_REPRESENTATION( #28, #29 );
#6 =  ( GEOMETRIC_REPRESENTATION_CONTEXT( 3 )GLOBAL_UNCERTAINTY_ASSIGNED_CONTEXT( ( #32 ) )GLOBAL_UNIT_ASSIGNED_CONTEXT( ( #34, #35, #36 ) )REPRESENTATION_CONTEXT( 'NONE', 'WORKSPACE' ) );
#10 = STYLED_ITEM( '', ( #38 ), #39 );
#11 = STYLED_ITEM( '', ( #40 ), #41 );
#12 = STYLED_ITEM( '', ( #42 ), #43 );
#13 = STYLED_ITEM( '', ( #44 ), #45 );
#14 = STYLED_ITEM( '', ( #46 ), #47 );
#15 = STYLED_ITEM( '', ( #48 ), #49 );
#16 = STYLED_ITEM( '', ( #50 ), #51 );
#17 = STYLED_ITEM( '', ( #52 ), #53 );
#18 = STYLED_ITEM( '', ( #54 ), #55 );
#19 = STYLED_ITEM( '', ( #56 ), #57 );
#20 = STYLED_ITEM( '', ( #58 ), #59 );
#21 = STYLED_ITEM( '', ( #60 ), #61 );
#22 = STYLED_ITEM( '', ( #62 ), #63 );
#23 = STYLED_ITEM( '', ( #64 ), #65 );
#24 = STYLED_ITEM( '', ( #66 ), #67 );
#25 = APPLICATION_CONTEXT( 'core data for automotive mechanical design processes' );
#26 = PRODUCT_CATEGORY( 'part', 'NONE' );
#27 = PRODUCT_RELATED_PRODUCT_CATEGORY( 'detail', ' ', ( #68 ) );
#28 = PRODUCT_DEFINITION_SHAPE( 'NONE', 'NONE', #69 );
#29 = ADVANCED_BREP_SHAPE_REPRESENTATION( '_K0163.1120X12', ( #70, #71 ), #6 );
#32 = UNCERTAINTY_MEASURE_WITH_UNIT( LENGTH_MEASURE( 0.00100000000000000 ), #34, '', '' );
#34 =  ( CONVERSION_BASED_UNIT( 'MILLIMETRE', #74 )LENGTH_UNIT(  )NAMED_UNIT( #77 ) );
#35 =  ( NAMED_UNIT( #79 )PLANE_ANGLE_UNIT(  )SI_UNIT( $, .RADIAN. ) );
#36 =  ( NAMED_UNIT( #79 )SI_UNIT( $, .STERADIAN. )SOLID_ANGLE_UNIT(  ) );
#38 = PRESENTATION_STYLE_ASSIGNMENT( ( #85 ) );
#39 = ADVANCED_FACE( '', ( #86 ), #87, .T. );
#40 = PRESENTATION_STYLE_ASSIGNMENT( ( #88 ) );
#41 = ADVANCED_FACE( '', ( #89, #90 ), #91, .T. );
#42 = PRESENTATION_STYLE_ASSIGNMENT( ( #92 ) );
#43 = ADVANCED_FACE( '', ( #93, #94 ), #95, .T. );
#44 = PRESENTATION_STYLE_ASSIGNMENT( ( #96 ) );
#45 = ADVANCED_FACE( '', ( #97, #98 ), #99, .F. );
#46 = PRESENTATION_STYLE_ASSIGNMENT( ( #100 ) );
#47 = ADVANCED_FACE( '', ( #101, #102 ), #103, .F. );
#48 = PRESENTATION_STYLE_ASSIGNMENT( ( #104 ) );
#49 = ADVANCED_FACE( '', ( #105, #106 ), #107, .F. );
#50 = PRESENTATION_STYLE_ASSIGNMENT( ( #108 ) );
#51 = ADVANCED_FACE( '', ( #109, #110 ), #111, .F. );
#52 = PRESENTATION_STYLE_ASSIGNMENT( ( #112 ) );
#53 = ADVANCED_FACE( '', ( #113, #114 ), #115, .T. );
#54 = PRESENTATION_STYLE_ASSIGNMENT( ( #116 ) );
#55 = ADVANCED_FACE( '', ( #117, #118, #119 ), #120, .T. );
#56 = PRESENTATION_STYLE_ASSIGNMENT( ( #121 ) );
#57 = ADVANCED_FACE( '', ( #122 ), #123, .T. );
#58 = PRESENTATION_STYLE_ASSIGNMENT( ( #124 ) );
#59 = ADVANCED_FACE( '', ( #125 ), #126, .T. );
#60 = PRESENTATION_STYLE_ASSIGNMENT( ( #127 ) );
#61 = ADVANCED_FACE( '', ( #128, #129 ), #130, .F. );
#62 = PRESENTATION_STYLE_ASSIGNMENT( ( #131 ) );
#63 = ADVANCED_FACE( '', ( #132 ), #133, .F. );
#64 = PRESENTATION_STYLE_ASSIGNMENT( ( #134 ) );
#65 = ADVANCED_FACE( '', ( #135, #136 ), #137, .T. );
#66 = PRESENTATION_STYLE_ASSIGNMENT( ( #138 ) );
#67 = ADVANCED_FACE( '', ( #139, #140 ), #141, .F. );
#68 = PRODUCT( '_K0163.1120X12', '_K0163.1120X12', 'PART-_K0163.1120X12-DESC', ( #142 ) );
#69 = PRODUCT_DEFINITION( 'NONE', 'NONE', #143, #2 );
#70 = MANIFOLD_SOLID_BREP( '_K0163.1120X12', #144 );
#71 = AXIS2_PLACEMENT_3D( '', #145, #146, #147 );
#74 = LENGTH_MEASURE_WITH_UNIT( LENGTH_MEASURE( 1.00000000000000 ), #148 );
#77 = DIMENSIONAL_EXPONENTS( 1.00000000000000, 0.000000000000000, 0.000000000000000, 0.000000000000000, 0.000000000000000, 0.000000000000000, 0.000000000000000 );
#79 = DIMENSIONAL_EXPONENTS( 0.000000000000000, 0.000000000000000, 0.000000000000000, 0.000000000000000, 0.000000000000000, 0.000000000000000, 0.000000000000000 );
#85 = SURFACE_STYLE_USAGE( .BOTH., #149 );
#86 = FACE_OUTER_BOUND( '', #150, .T. );
#87 = PLANE( '', #151 );
#88 = SURFACE_STYLE_USAGE( .BOTH., #152 );
#89 = FACE_OUTER_BOUND( '', #153, .T. );
#90 = FACE_OUTER_BOUND( '', #154, .T. );
#91 = TOROIDAL_SURFACE( '', #155, 49.9999371535000, 5.00000000000000 );
#92 = SURFACE_STYLE_USAGE( .BOTH., #156 );
#93 = FACE_BOUND( '', #157, .T. );
#94 = FACE_OUTER_BOUND( '', #158, .T. );
#95 = CONICAL_SURFACE( '', #159, 46.0000000000000, 1.28641155020000 );
#96 = SURFACE_STYLE_USAGE( .BOTH., #160 );
#97 = FACE_BOUND( '', #161, .T. );
#98 = FACE_OUTER_BOUND( '', #162, .T. );
#99 = CONICAL_SURFACE( '', #163, 50.0000000000000, 1.10714871780000 );
#100 = SURFACE_STYLE_USAGE( .BOTH., #164 );
#101 = FACE_OUTER_BOUND( '', #165, .T. );
#102 = FACE_BOUND( '', #166, .T. );
#103 = CONICAL_SURFACE( '', #167, 50.5000000000000, 0.382675352600000 );
#104 = SURFACE_STYLE_USAGE( .BOTH., #168 );
#105 = FACE_OUTER_BOUND( '', #169, .T. );
#106 = FACE_BOUND( '', #170, .T. );
#107 = CONICAL_SURFACE( '', #171, 13.5000000000000, 1.32208633770000 );
#108 = SURFACE_STYLE_USAGE( .BOTH., #172 );
#109 = FACE_OUTER_BOUND( '', #173, .T. );
#110 = FACE_BOUND( '', #174, .T. );
#111 = PLANE( '', #175 );
#112 = SURFACE_STYLE_USAGE( .BOTH., #176 );
#113 = FACE_OUTER_BOUND( '', #177, .T. );
#114 = FACE_OUTER_BOUND( '', #178, .T. );
#115 = CYLINDRICAL_SURFACE( '', #179, 13.5000000000000 );
#116 = SURFACE_STYLE_USAGE( .BOTH., #180 );
#117 = FACE_BOUND( '', #181, .T. );
#118 = FACE_OUTER_BOUND( '', #182, .T. );
#119 = FACE_OUTER_BOUND( '', #183, .T. );
#120 = TOROIDAL_SURFACE( '', #184, 52.0000000000000, 8.00000000000000 );
#121 = SURFACE_STYLE_USAGE( .BOTH., #185 );
#122 = FACE_OUTER_BOUND( '', #186, .T. );
#123 = PLANE( '', #187 );
#124 = SURFACE_STYLE_USAGE( .BOTH., #188 );
#125 = FACE_OUTER_BOUND( '', #189, .T. );
#126 = PLANE( '', #190 );
#127 = SURFACE_STYLE_USAGE( .BOTH., #191 );
#128 = FACE_BOUND( '', #192, .T. );
#129 = FACE_OUTER_BOUND( '', #193, .T. );
#130 = PLANE( '', #194 );
#131 = SURFACE_STYLE_USAGE( .BOTH., #195 );
#132 = FACE_OUTER_BOUND( '', #196, .T. );
#133 = CYLINDRICAL_SURFACE( '', #197, 6.00000000000000 );
#134 = SURFACE_STYLE_USAGE( .BOTH., #198 );
#135 = FACE_OUTER_BOUND( '', #199, .T. );
#136 = FACE_OUTER_BOUND( '', #200, .T. );
#137 = CYLINDRICAL_SURFACE( '', #201, 13.5000000000000 );
#138 = SURFACE_STYLE_USAGE( .BOTH., #202 );
#139 = FACE_BOUND( '', #203, .T. );
#140 = FACE_OUTER_BOUND( '', #204, .T. );
#141 = CONICAL_SURFACE( '', #205, 51.0000000000000, 0.389352174000000 );
#142 = PRODUCT_CONTEXT( '', #25, 'mechanical' );
#143 = PRODUCT_DEFINITION_FORMATION_WITH_SPECIFIED_SOURCE( ' ', 'NONE', #68, .NOT_KNOWN. );
#144 = CLOSED_SHELL( '', ( #51, #57, #39, #63, #59, #61, #65, #43, #45, #67, #55, #47, #41, #49, #53 ) );
#145 = CARTESIAN_POINT( '', ( 0.000000000000000, 0.000000000000000, 0.000000000000000 ) );
#146 = DIRECTION( '', ( 0.000000000000000, 0.000000000000000, 1.00000000000000 ) );
#147 = DIRECTION( '', ( 1.00000000000000, 0.000000000000000, 0.000000000000000 ) );
#148 =  ( LENGTH_UNIT(  )NAMED_UNIT( #77 )SI_UNIT( .MILLI., .METRE. ) );
#149 = SURFACE_SIDE_STYLE( '', ( #207 ) );
#150 = EDGE_LOOP( '', ( #208, #209, #210, #211 ) );
#151 = AXIS2_PLACEMENT_3D( '', #212, #213, #214 );
#152 = SURFACE_SIDE_STYLE( '', ( #215 ) );
#153 = EDGE_LOOP( '', ( #216 ) );
#154 = EDGE_LOOP( '', ( #217 ) );
#155 = AXIS2_PLACEMENT_3D( '', #218, #219, #220 );
#156 = SURFACE_SIDE_STYLE( '', ( #221 ) );
#157 = EDGE_LOOP( '', ( #222 ) );
#158 = EDGE_LOOP( '', ( #223 ) );
#159 = AXIS2_PLACEMENT_3D( '', #224, #225, #226 );
#160 = SURFACE_SIDE_STYLE( '', ( #227 ) );
#161 = EDGE_LOOP( '', ( #228 ) );
#162 = EDGE_LOOP( '', ( #229 ) );
#163 = AXIS2_PLACEMENT_3D( '', #230, #231, #232 );
#164 = SURFACE_SIDE_STYLE( '', ( #233 ) );
#165 = EDGE_LOOP( '', ( #234 ) );
#166 = EDGE_LOOP( '', ( #235 ) );
#167 = AXIS2_PLACEMENT_3D( '', #236, #237, #238 );
#168 = SURFACE_SIDE_STYLE( '', ( #239 ) );
#169 = EDGE_LOOP( '', ( #240 ) );
#170 = EDGE_LOOP( '', ( #241 ) );
#171 = AXIS2_PLACEMENT_3D( '', #242, #243, #244 );
#172 = SURFACE_SIDE_STYLE( '', ( #245 ) );
#173 = EDGE_LOOP( '', ( #246 ) );
#174 = EDGE_LOOP( '', ( #247, #248, #249, #250 ) );
#175 = AXIS2_PLACEMENT_3D( '', #251, #252, #253 );
#176 = SURFACE_SIDE_STYLE( '', ( #254 ) );
#177 = EDGE_LOOP( '', ( #255 ) );
#178 = EDGE_LOOP( '', ( #256 ) );
#179 = AXIS2_PLACEMENT_3D( '', #257, #258, #259 );
#180 = SURFACE_SIDE_STYLE( '', ( #260 ) );
#181 = VERTEX_LOOP( '', #261 );
#182 = EDGE_LOOP( '', ( #262 ) );
#183 = EDGE_LOOP( '', ( #263 ) );
#184 = AXIS2_PLACEMENT_3D( '', #264, #265, #266 );
#185 = SURFACE_SIDE_STYLE( '', ( #267 ) );
#186 = EDGE_LOOP( '', ( #268, #269, #270, #271 ) );
#187 = AXIS2_PLACEMENT_3D( '', #272, #273, #274 );
#188 = SURFACE_SIDE_STYLE( '', ( #275 ) );
#189 = EDGE_LOOP( '', ( #276, #277, #278, #279 ) );
#190 = AXIS2_PLACEMENT_3D( '', #280, #281, #282 );
#191 = SURFACE_SIDE_STYLE( '', ( #283 ) );
#192 = EDGE_LOOP( '', ( #284, #285, #286, #287 ) );
#193 = EDGE_LOOP( '', ( #288 ) );
#194 = AXIS2_PLACEMENT_3D( '', #289, #290, #291 );
#195 = SURFACE_SIDE_STYLE( '', ( #292 ) );
#196 = EDGE_LOOP( '', ( #293, #294, #295, #296 ) );
#197 = AXIS2_PLACEMENT_3D( '', #297, #298, #299 );
#198 = SURFACE_SIDE_STYLE( '', ( #300 ) );
#199 = EDGE_LOOP( '', ( #301 ) );
#200 = EDGE_LOOP( '', ( #302 ) );
#201 = AXIS2_PLACEMENT_3D( '', #303, #304, #305 );
#202 = SURFACE_SIDE_STYLE( '', ( #306 ) );
#203 = EDGE_LOOP( '', ( #307 ) );
#204 = EDGE_LOOP( '', ( #308 ) );
#205 = AXIS2_PLACEMENT_3D( '', #309, #310, #311 );
#207 = SURFACE_STYLE_FILL_AREA( #312 );
#208 = ORIENTED_EDGE( '', *, *, #313, .T. );
#209 = ORIENTED_EDGE( '', *, *, #314, .T. );
#210 = ORIENTED_EDGE( '', *, *, #315, .F. );
#211 = ORIENTED_EDGE( '', *, *, #316, .F. );
#212 = CARTESIAN_POINT( '', ( 27.0000000000000, 5.65685424949238, -2.00000000000000 ) );
#213 = DIRECTION( '', ( 0.000000000000000, 0.000000000000000, 1.00000000000000 ) );
#214 = DIRECTION( '', ( 1.00000000000000, 0.000000000000000, -0.000000000000000 ) );
#215 = SURFACE_STYLE_FILL_AREA( #317 );
#216 = ORIENTED_EDGE( '', *, *, #318, .T. );
#217 = ORIENTED_EDGE( '', *, *, #319, .F. );
#218 = CARTESIAN_POINT( '', ( 22.5250691311817, 0.000000000000000, 0.000000000000000 ) );
#219 = DIRECTION( '', ( -1.00000000000000, 0.000000000000000, 0.000000000000000 ) );
#220 = DIRECTION( '', ( 0.000000000000000, 0.000000000000000, 1.00000000000000 ) );
#221 = SURFACE_STYLE_FILL_AREA( #320 );
#222 = ORIENTED_EDGE( '', *, *, #321, .F. );
#223 = ORIENTED_EDGE( '', *, *, #322, .T. );
#224 = CARTESIAN_POINT( '', ( 18.5000000000000, 0.000000000000000, 0.000000000000000 ) );
#225 = DIRECTION( '', ( 1.00000000000000, -0.000000000000000, 0.000000000000000 ) );
#226 = DIRECTION( '', ( 0.000000000000000, 0.000000000000000, -1.00000000000000 ) );
#227 = SURFACE_STYLE_FILL_AREA( #323 );
#228 = ORIENTED_EDGE( '', *, *, #322, .F. );
#229 = ORIENTED_EDGE( '', *, *, #324, .T. );
#230 = CARTESIAN_POINT( '', ( 16.5000000000000, 0.000000000000000, 0.000000000000000 ) );
#231 = DIRECTION( '', ( -1.00000000000000, -0.000000000000000, -0.000000000000000 ) );
#232 = DIRECTION( '', ( 0.000000000000000, 0.000000000000000, 1.00000000000000 ) );
#233 = SURFACE_STYLE_FILL_AREA( #325 );
#234 = ORIENTED_EDGE( '', *, *, #326, .F. );
#235 = ORIENTED_EDGE( '', *, *, #319, .T. );
#236 = CARTESIAN_POINT( '', ( 27.5000000000000, 0.000000000000000, 0.000000000000000 ) );
#237 = DIRECTION( '', ( 1.00000000000000, -0.000000000000000, 0.000000000000000 ) );
#238 = DIRECTION( '', ( 0.000000000000000, 0.000000000000000, -1.00000000000000 ) );
#239 = SURFACE_STYLE_FILL_AREA( #327 );
#240 = ORIENTED_EDGE( '', *, *, #318, .F. );
#241 = ORIENTED_EDGE( '', *, *, #328, .T. );
#242 = CARTESIAN_POINT( '', ( 14.5000000000000, 0.000000000000000, 0.000000000000000 ) );
#243 = DIRECTION( '', ( 1.00000000000000, -0.000000000000000, 0.000000000000000 ) );
#244 = DIRECTION( '', ( 0.000000000000000, 0.000000000000000, -1.00000000000000 ) );
#245 = SURFACE_STYLE_FILL_AREA( #329 );
#246 = ORIENTED_EDGE( '', *, *, #330, .F. );
#247 = ORIENTED_EDGE( '', *, *, #331, .F. );
#248 = ORIENTED_EDGE( '', *, *, #332, .F. );
#249 = ORIENTED_EDGE( '', *, *, #313, .F. );
#250 = ORIENTED_EDGE( '', *, *, #333, .F. );
#251 = CARTESIAN_POINT( '', ( 18.0000000000000, 0.000000000000000, 0.000000000000000 ) );
#252 = DIRECTION( '', ( -1.00000000000000, 0.000000000000000, 0.000000000000000 ) );
#253 = DIRECTION( '', ( 0.000000000000000, 0.000000000000000, 1.00000000000000 ) );
#254 = SURFACE_STYLE_FILL_AREA( #334 );
#255 = ORIENTED_EDGE( '', *, *, #328, .F. );
#256 = ORIENTED_EDGE( '', *, *, #330, .T. );
#257 = CARTESIAN_POINT( '', ( 0.000000000000000, 0.000000000000000, 0.000000000000000 ) );
#258 = DIRECTION( '', ( 1.00000000000000, -0.000000000000000, -0.000000000000000 ) );
#259 = DIRECTION( '', ( 0.000000000000000, 0.000000000000000, 1.00000000000000 ) );
#260 = SURFACE_STYLE_FILL_AREA( #335 );
#261 = VERTEX_POINT( '', #336 );
#262 = ORIENTED_EDGE( '', *, *, #326, .T. );
#263 = ORIENTED_EDGE( '', *, *, #337, .F. );
#264 = CARTESIAN_POINT( '', ( 22.0000000000000, 0.000000000000000, 0.000000000000000 ) );
#265 = DIRECTION( '', ( -1.00000000000000, 0.000000000000000, 0.000000000000000 ) );
#266 = DIRECTION( '', ( 0.000000000000000, 0.000000000000000, 1.00000000000000 ) );
#267 = SURFACE_STYLE_FILL_AREA( #338 );
#268 = ORIENTED_EDGE( '', *, *, #332, .T. );
#269 = ORIENTED_EDGE( '', *, *, #339, .T. );
#270 = ORIENTED_EDGE( '', *, *, #340, .F. );
#271 = ORIENTED_EDGE( '', *, *, #314, .F. );
#272 = CARTESIAN_POINT( '', ( 27.0000000000000, 7.80000000000000, -2.00000000000000 ) );
#273 = DIRECTION( '', ( 0.000000000000000, -1.00000000000000, 0.000000000000000 ) );
#274 = DIRECTION( '', ( 0.000000000000000, 0.000000000000000, -1.00000000000000 ) );
#275 = SURFACE_STYLE_FILL_AREA( #341 );
#276 = ORIENTED_EDGE( '', *, *, #331, .T. );
#277 = ORIENTED_EDGE( '', *, *, #342, .T. );
#278 = ORIENTED_EDGE( '', *, *, #343, .F. );
#279 = ORIENTED_EDGE( '', *, *, #339, .F. );
#280 = CARTESIAN_POINT( '', ( 27.0000000000000, 7.80000000000000, 2.00000000000001 ) );
#281 = DIRECTION( '', ( 0.000000000000000, 3.23771442155238E-15, -1.00000000000000 ) );
#282 = DIRECTION( '', ( 0.000000000000000, 1.00000000000000, 3.23771442155238E-15 ) );
#283 = SURFACE_STYLE_FILL_AREA( #344 );
#284 = ORIENTED_EDGE( '', *, *, #343, .T. );
#285 = ORIENTED_EDGE( '', *, *, #345, .F. );
#286 = ORIENTED_EDGE( '', *, *, #315, .T. );
#287 = ORIENTED_EDGE( '', *, *, #340, .T. );
#288 = ORIENTED_EDGE( '', *, *, #346, .T. );
#289 = CARTESIAN_POINT( '', ( 0.000000000000000, -13.5000000000000, 0.000000000000000 ) );
#290 = DIRECTION( '', ( 1.00000000000000, 0.000000000000000, 0.000000000000000 ) );
#291 = DIRECTION( '', ( 0.000000000000000, 0.000000000000000, -1.00000000000000 ) );
#292 = SURFACE_STYLE_FILL_AREA( #347 );
#293 = ORIENTED_EDGE( '', *, *, #333, .T. );
#294 = ORIENTED_EDGE( '', *, *, #316, .T. );
#295 = ORIENTED_EDGE( '', *, *, #345, .T. );
#296 = ORIENTED_EDGE( '', *, *, #342, .F. );
#297 = CARTESIAN_POINT( '', ( 27.0000000000000, 3.25260651745651E-16, 0.000000000000000 ) );
#298 = DIRECTION( '', ( 1.00000000000000, -0.000000000000000, -0.000000000000000 ) );
#299 = DIRECTION( '', ( 0.000000000000000, 0.000000000000000, 1.00000000000000 ) );
#300 = SURFACE_STYLE_FILL_AREA( #348 );
#301 = ORIENTED_EDGE( '', *, *, #346, .F. );
#302 = ORIENTED_EDGE( '', *, *, #321, .T. );
#303 = CARTESIAN_POINT( '', ( 0.000000000000000, 0.000000000000000, 0.000000000000000 ) );
#304 = DIRECTION( '', ( 1.00000000000000, -0.000000000000000, -0.000000000000000 ) );
#305 = DIRECTION( '', ( 0.000000000000000, 0.000000000000000, 1.00000000000000 ) );
#306 = SURFACE_STYLE_FILL_AREA( #349 );
#307 = ORIENTED_EDGE( '', *, *, #324, .F. );
#308 = ORIENTED_EDGE( '', *, *, #337, .T. );
#309 = CARTESIAN_POINT( '', ( 14.0627460668062, 0.000000000000000, 0.000000000000000 ) );
#310 = DIRECTION( '', ( -1.00000000000000, -0.000000000000000, -0.000000000000000 ) );
#311 = DIRECTION( '', ( 0.000000000000000, 0.000000000000000, 1.00000000000000 ) );
#312 = FILL_AREA_STYLE( '', ( #350 ) );
#313 = EDGE_CURVE( '', #351, #352, #353, .T. );
#314 = EDGE_CURVE( '', #352, #354, #355, .T. );
#315 = EDGE_CURVE( '', #356, #354, #357, .T. );
#316 = EDGE_CURVE( '', #351, #356, #358, .T. );
#317 = FILL_AREA_STYLE( '', ( #359 ) );
#318 = EDGE_CURVE( '', #360, #360, #361, .T. );
#319 = EDGE_CURVE( '', #362, #362, #363, .T. );
#320 = FILL_AREA_STYLE( '', ( #364 ) );
#321 = EDGE_CURVE( '', #365, #365, #366, .T. );
#322 = EDGE_CURVE( '', #367, #367, #368, .T. );
#323 = FILL_AREA_STYLE( '', ( #369 ) );
#324 = EDGE_CURVE( '', #370, #370, #371, .T. );
#325 = FILL_AREA_STYLE( '', ( #372 ) );
#326 = EDGE_CURVE( '', #373, #373, #374, .T. );
#327 = FILL_AREA_STYLE( '', ( #375 ) );
#328 = EDGE_CURVE( '', #376, #376, #377, .T. );
#329 = FILL_AREA_STYLE( '', ( #378 ) );
#330 = EDGE_CURVE( '', #379, #379, #380, .T. );
#331 = EDGE_CURVE( '', #381, #382, #383, .T. );
#332 = EDGE_CURVE( '', #352, #381, #384, .T. );
#333 = EDGE_CURVE( '', #382, #351, #385, .F. );
#334 = FILL_AREA_STYLE( '', ( #386 ) );
#335 = FILL_AREA_STYLE( '', ( #387 ) );
#336 = CARTESIAN_POINT( '', ( 22.0000000000000, 0.000000000000000, 60.0000000000000 ) );
#337 = EDGE_CURVE( '', #388, #388, #389, .T. );
#338 = FILL_AREA_STYLE( '', ( #390 ) );
#339 = EDGE_CURVE( '', #381, #391, #392, .T. );
#340 = EDGE_CURVE( '', #354, #391, #393, .T. );
#341 = FILL_AREA_STYLE( '', ( #394 ) );
#342 = EDGE_CURVE( '', #382, #395, #396, .T. );
#343 = EDGE_CURVE( '', #391, #395, #397, .T. );
#344 = FILL_AREA_STYLE( '', ( #398 ) );
#345 = EDGE_CURVE( '', #356, #395, #399, .F. );
#346 = EDGE_CURVE( '', #400, #400, #401, .T. );
#347 = FILL_AREA_STYLE( '', ( #402 ) );
#348 = FILL_AREA_STYLE( '', ( #403 ) );
#349 = FILL_AREA_STYLE( '', ( #404 ) );
#350 = FILL_AREA_STYLE_COLOUR( '', #405 );
#351 = VERTEX_POINT( '', #406 );
#352 = VERTEX_POINT( '', #407 );
#353 = LINE( '', #408, #409 );
#354 = VERTEX_POINT( '', #410 );
#355 = LINE( '', #411, #412 );
#356 = VERTEX_POINT( '', #413 );
#357 = LINE( '', #414, #415 );
#358 = LINE( '', #416, #417 );
#359 = FILL_AREA_STYLE_COLOUR( '', #418 );
#360 = VERTEX_POINT( '', #419 );
#361 = CIRCLE( '', #420, 45.0000000000000 );
#362 = VERTEX_POINT( '', #421 );
#363 = CIRCLE( '', #422, 50.5000000000000 );
#364 = FILL_AREA_STYLE_COLOUR( '', #423 );
#365 = VERTEX_POINT( '', #424 );
#366 = CIRCLE( '', #425, 13.5000000000000 );
#367 = VERTEX_POINT( '', #426 );
#368 = CIRCLE( '', #427, 46.0000000000000 );
#369 = FILL_AREA_STYLE_COLOUR( '', #428 );
#370 = VERTEX_POINT( '', #429 );
#371 = CIRCLE( '', #430, 50.0000000000000 );
#372 = FILL_AREA_STYLE_COLOUR( '', #431 );
#373 = VERTEX_POINT( '', #432 );
#374 = CIRCLE( '', #433, 51.5000000000000 );
#375 = FILL_AREA_STYLE_COLOUR( '', #434 );
#376 = VERTEX_POINT( '', #435 );
#377 = CIRCLE( '', #436, 13.5000000000000 );
#378 = FILL_AREA_STYLE_COLOUR( '', #437 );
#379 = VERTEX_POINT( '', #438 );
#380 = CIRCLE( '', #439, 13.5000000000000 );
#381 = VERTEX_POINT( '', #440 );
#382 = VERTEX_POINT( '', #441 );
#383 = LINE( '', #442, #443 );
#384 = LINE( '', #444, #445 );
#385 = CIRCLE( '', #446, 6.00000000000000 );
#386 = FILL_AREA_STYLE_COLOUR( '', #447 );
#387 = FILL_AREA_STYLE_COLOUR( '', #448 );
#388 = VERTEX_POINT( '', #449 );
#389 = CIRCLE( '', #450, 51.0000000000000 );
#390 = FILL_AREA_STYLE_COLOUR( '', #451 );
#391 = VERTEX_POINT( '', #452 );
#392 = LINE( '', #453, #454 );
#393 = LINE( '', #455, #456 );
#394 = FILL_AREA_STYLE_COLOUR( '', #457 );
#395 = VERTEX_POINT( '', #458 );
#396 = LINE( '', #459, #460 );
#397 = LINE( '', #461, #462 );
#398 = FILL_AREA_STYLE_COLOUR( '', #463 );
#399 = CIRCLE( '', #464, 6.00000000000000 );
#400 = VERTEX_POINT( '', #465 );
#401 = CIRCLE( '', #466, 13.5000000000000 );
#402 = FILL_AREA_STYLE_COLOUR( '', #467 );
#403 = FILL_AREA_STYLE_COLOUR( '', #468 );
#404 = FILL_AREA_STYLE_COLOUR( '', #469 );
#405 = COLOUR_RGB( '', 0.689999997600000, 0.689999997600000, 0.689999997600000 );
#406 = CARTESIAN_POINT( '', ( 18.0000000000000, 5.65685424949238, -1.99999999999999 ) );
#407 = CARTESIAN_POINT( '', ( 18.0000000000000, 7.80000000000000, -2.00000000000000 ) );
#408 = CARTESIAN_POINT( '', ( 18.0000000000000, 0.000000000000000, -2.00000000000000 ) );
#409 = VECTOR( '', #470, 1000.00000000000 );
#410 = CARTESIAN_POINT( '', ( 0.000000000000000, 7.80000000000000, -2.00000000000000 ) );
#411 = CARTESIAN_POINT( '', ( 27.0000000000000, 7.80000000000000, -2.00000000000000 ) );
#412 = VECTOR( '', #471, 1000.00000000000 );
#413 = CARTESIAN_POINT( '', ( 0.000000000000000, 5.65685424949238, -1.99999999999999 ) );
#414 = CARTESIAN_POINT( '', ( 0.000000000000000, 5.65685424949238, -2.00000000000000 ) );
#415 = VECTOR( '', #472, 1000.00000000000 );
#416 = CARTESIAN_POINT( '', ( 27.0000000000000, 5.65685424949238, -1.99999999999999 ) );
#417 = VECTOR( '', #473, 1000.00000000000 );
#418 = COLOUR_RGB( '', 0.689999997600000, 0.689999997600000, 0.689999997600000 );
#419 = CARTESIAN_POINT( '', ( 22.5000000000000, 0.000000000000000, 45.0000000000000 ) );
#420 = AXIS2_PLACEMENT_3D( '', #474, #475, #476 );
#421 = CARTESIAN_POINT( '', ( 27.5000000000000, 0.000000000000000, 50.5000000000000 ) );
#422 = AXIS2_PLACEMENT_3D( '', #477, #478, #479 );
#423 = COLOUR_RGB( '', 0.689999997600000, 0.689999997600000, 0.689999997600000 );
#424 = CARTESIAN_POINT( '', ( 9.00000000000000, 0.000000000000000, 13.5000000000000 ) );
#425 = AXIS2_PLACEMENT_3D( '', #480, #481, #482 );
#426 = CARTESIAN_POINT( '', ( 18.5000000000000, 0.000000000000000, 46.0000000000000 ) );
#427 = AXIS2_PLACEMENT_3D( '', #483, #484, #485 );
#428 = COLOUR_RGB( '', 0.689999997600000, 0.689999997600000, 0.689999997600000 );
#429 = CARTESIAN_POINT( '', ( 16.5000000000000, 0.000000000000000, 50.0000000000000 ) );
#430 = AXIS2_PLACEMENT_3D( '', #486, #487, #488 );
#431 = COLOUR_RGB( '', 0.689999997600000, 0.689999997600000, 0.689999997600000 );
#432 = CARTESIAN_POINT( '', ( 29.9843597113357, 0.000000000000000, 51.5000000000000 ) );
#433 = AXIS2_PLACEMENT_3D( '', #489, #490, #491 );
#434 = COLOUR_RGB( '', 0.689999997600000, 0.689999997600000, 0.689999997600000 );
#435 = CARTESIAN_POINT( '', ( 14.5000000000000, 0.000000000000000, 13.5000000000000 ) );
#436 = AXIS2_PLACEMENT_3D( '', #492, #493, #494 );
#437 = COLOUR_RGB( '', 0.689999997600000, 0.689999997600000, 0.689999997600000 );
#438 = CARTESIAN_POINT( '', ( 18.0000000000000, 0.000000000000000, 13.5000000000000 ) );
#439 = AXIS2_PLACEMENT_3D( '', #495, #496, #497 );
#440 = CARTESIAN_POINT( '', ( 18.0000000000000, 7.80000000000000, 2.00000000000001 ) );
#441 = CARTESIAN_POINT( '', ( 18.0000000000000, 5.65685424949238, 2.00000000000000 ) );
#442 = CARTESIAN_POINT( '', ( 18.0000000000000, -6.47542884310471E-15, 1.99999999999998 ) );
#443 = VECTOR( '', #498, 1000.00000000000 );
#444 = CARTESIAN_POINT( '', ( 18.0000000000000, 7.80000000000000, 0.000000000000000 ) );
#445 = VECTOR( '', #499, 1000.00000000000 );
#446 = AXIS2_PLACEMENT_3D( '', #500, #501, #502 );
#447 = COLOUR_RGB( '', 0.689999997600000, 0.689999997600000, 0.689999997600000 );
#448 = COLOUR_RGB( '', 0.689999997600000, 0.689999997600000, 0.689999997600000 );
#449 = CARTESIAN_POINT( '', ( 14.0627460668062, 0.000000000000000, 51.0000000000000 ) );
#450 = AXIS2_PLACEMENT_3D( '', #503, #504, #505 );
#451 = COLOUR_RGB( '', 0.689999997600000, 0.689999997600000, 0.689999997600000 );
#452 = CARTESIAN_POINT( '', ( 0.000000000000000, 7.80000000000000, 2.00000000000001 ) );
#453 = CARTESIAN_POINT( '', ( 27.0000000000000, 7.80000000000000, 2.00000000000001 ) );
#454 = VECTOR( '', #506, 1000.00000000000 );
#455 = CARTESIAN_POINT( '', ( 0.000000000000000, 7.80000000000000, -2.00000000000000 ) );
#456 = VECTOR( '', #507, 1000.00000000000 );
#457 = COLOUR_RGB( '', 0.689999997600000, 0.689999997600000, 0.689999997600000 );
#458 = CARTESIAN_POINT( '', ( 0.000000000000000, 5.65685424949238, 2.00000000000000 ) );
#459 = CARTESIAN_POINT( '', ( 27.0000000000000, 5.65685424949238, 2.00000000000000 ) );
#460 = VECTOR( '', #508, 1000.00000000000 );
#461 = CARTESIAN_POINT( '', ( 0.000000000000000, 7.80000000000000, 2.00000000000001 ) );
#462 = VECTOR( '', #509, 1000.00000000000 );
#463 = COLOUR_RGB( '', 0.689999997600000, 0.689999997600000, 0.689999997600000 );
#464 = AXIS2_PLACEMENT_3D( '', #510, #511, #512 );
#465 = CARTESIAN_POINT( '', ( 0.000000000000000, 0.000000000000000, 13.5000000000000 ) );
#466 = AXIS2_PLACEMENT_3D( '', #513, #514, #515 );
#467 = COLOUR_RGB( '', 0.689999997600000, 0.689999997600000, 0.689999997600000 );
#468 = COLOUR_RGB( '', 0.689999997600000, 0.689999997600000, 0.689999997600000 );
#469 = COLOUR_RGB( '', 0.689999997600000, 0.689999997600000, 0.689999997600000 );
#470 = DIRECTION( '', ( 0.000000000000000, 1.00000000000000, 0.000000000000000 ) );
#471 = DIRECTION( '', ( -1.00000000000000, -0.000000000000000, -0.000000000000000 ) );
#472 = DIRECTION( '', ( 0.000000000000000, 1.00000000000000, 0.000000000000000 ) );
#473 = DIRECTION( '', ( -1.00000000000000, -0.000000000000000, -0.000000000000000 ) );
#474 = CARTESIAN_POINT( '', ( 22.5000000000000, 0.000000000000000, 0.000000000000000 ) );
#475 = DIRECTION( '', ( -1.00000000000000, 0.000000000000000, 0.000000000000000 ) );
#476 = DIRECTION( '', ( 0.000000000000000, 0.000000000000000, 1.00000000000000 ) );
#477 = CARTESIAN_POINT( '', ( 27.5000000000000, 0.000000000000000, 0.000000000000000 ) );
#478 = DIRECTION( '', ( -1.00000000000000, 0.000000000000000, 0.000000000000000 ) );
#479 = DIRECTION( '', ( 0.000000000000000, 0.000000000000000, 1.00000000000000 ) );
#480 = CARTESIAN_POINT( '', ( 9.00000000000000, 0.000000000000000, 0.000000000000000 ) );
#481 = DIRECTION( '', ( -1.00000000000000, 0.000000000000000, 0.000000000000000 ) );
#482 = DIRECTION( '', ( 0.000000000000000, 0.000000000000000, 1.00000000000000 ) );
#483 = CARTESIAN_POINT( '', ( 18.5000000000000, 0.000000000000000, 0.000000000000000 ) );
#484 = DIRECTION( '', ( -1.00000000000000, 0.000000000000000, 0.000000000000000 ) );
#485 = DIRECTION( '', ( 0.000000000000000, 0.000000000000000, 1.00000000000000 ) );
#486 = CARTESIAN_POINT( '', ( 16.5000000000000, 0.000000000000000, 0.000000000000000 ) );
#487 = DIRECTION( '', ( -1.00000000000000, 0.000000000000000, 0.000000000000000 ) );
#488 = DIRECTION( '', ( 0.000000000000000, 0.000000000000000, 1.00000000000000 ) );
#489 = CARTESIAN_POINT( '', ( 29.9843597113357, 0.000000000000000, 0.000000000000000 ) );
#490 = DIRECTION( '', ( -1.00000000000000, 0.000000000000000, 0.000000000000000 ) );
#491 = DIRECTION( '', ( 0.000000000000000, 0.000000000000000, 1.00000000000000 ) );
#492 = CARTESIAN_POINT( '', ( 14.5000000000000, 0.000000000000000, 0.000000000000000 ) );
#493 = DIRECTION( '', ( -1.00000000000000, 0.000000000000000, 0.000000000000000 ) );
#494 = DIRECTION( '', ( 0.000000000000000, 0.000000000000000, 1.00000000000000 ) );
#495 = CARTESIAN_POINT( '', ( 18.0000000000000, 0.000000000000000, 0.000000000000000 ) );
#496 = DIRECTION( '', ( -1.00000000000000, 0.000000000000000, 0.000000000000000 ) );
#497 = DIRECTION( '', ( 0.000000000000000, 0.000000000000000, 1.00000000000000 ) );
#498 = DIRECTION( '', ( 0.000000000000000, -1.00000000000000, -3.23771442155238E-15 ) );
#499 = DIRECTION( '', ( 0.000000000000000, 0.000000000000000, 1.00000000000000 ) );
#500 = CARTESIAN_POINT( '', ( 18.0000000000000, 3.25260651745651E-16, 0.000000000000000 ) );
#501 = DIRECTION( '', ( -1.00000000000000, 0.000000000000000, 0.000000000000000 ) );
#502 = DIRECTION( '', ( 0.000000000000000, 0.000000000000000, 1.00000000000000 ) );
#503 = CARTESIAN_POINT( '', ( 14.0627460668062, 0.000000000000000, 0.000000000000000 ) );
#504 = DIRECTION( '', ( -1.00000000000000, 0.000000000000000, 0.000000000000000 ) );
#505 = DIRECTION( '', ( 0.000000000000000, 0.000000000000000, 1.00000000000000 ) );
#506 = DIRECTION( '', ( -1.00000000000000, -0.000000000000000, -0.000000000000000 ) );
#507 = DIRECTION( '', ( 0.000000000000000, 0.000000000000000, 1.00000000000000 ) );
#508 = DIRECTION( '', ( -1.00000000000000, -0.000000000000000, -0.000000000000000 ) );
#509 = DIRECTION( '', ( 0.000000000000000, -1.00000000000000, -3.23771442155238E-15 ) );
#510 = CARTESIAN_POINT( '', ( 0.000000000000000, 3.25260651745651E-16, 0.000000000000000 ) );
#511 = DIRECTION( '', ( 1.00000000000000, 0.000000000000000, 0.000000000000000 ) );
#512 = DIRECTION( '', ( 0.000000000000000, 0.000000000000000, -1.00000000000000 ) );
#513 = CARTESIAN_POINT( '', ( 0.000000000000000, 0.000000000000000, 0.000000000000000 ) );
#514 = DIRECTION( '', ( -1.00000000000000, 0.000000000000000, 0.000000000000000 ) );
#515 = DIRECTION( '', ( 0.000000000000000, 0.000000000000000, 1.00000000000000 ) );
ENDSEC;
END-ISO-10303-21;
