ISO-10303-21;
HEADER;
FILE_DESCRIPTION( ( 'STEP AP214' ), '1' );
FILE_NAME( '//goodhand-server/Shared Folders/GoodHand Data/Kipp CAD/K0392/K0392.110.stp', '2020-12-07T10:23:45', ( '' ), ( '' ), ' ', 'PARTsolutions', ' ' );
FILE_SCHEMA( ( 'AUTOMOTIVE_DESIGN { 1 0 10303 214 1 1 1 1 }' ) );
ENDSEC;
DATA;
#1 = MECHANICAL_DESIGN_GEOMETRIC_PRESENTATION_REPRESENTATION( ' ', ( #10, #11, #12, #13, #14, #15, #16, #17, #18, #19, #20, #21, #22, #23, #24, #25, #26 ), #6 );
#2 = PRODUCT_DEFINITION_CONTEXT( '', #27, 'design' );
#3 = APPLICATION_PROTOCOL_DEFINITION( 'international standard', 'automotive_design', 2001, #27 );
#4 = PRODUCT_CATEGORY_RELATIONSHIP( 'NONE', 'NONE', #28, #29 );
#5 = SHAPE_DEFINITION_REPRESENTATION( #30, #31 );
#6 =  ( GEOMETRIC_REPRESENTATION_CONTEXT( 3 )GLOBAL_UNCERTAINTY_ASSIGNED_CONTEXT( ( #34 ) )GLOBAL_UNIT_ASSIGNED_CONTEXT( ( #36, #37, #38 ) )REPRESENTATION_CONTEXT( 'NONE', 'WORKSPACE' ) );
#10 = STYLED_ITEM( '', ( #40 ), #41 );
#11 = STYLED_ITEM( '', ( #42 ), #43 );
#12 = STYLED_ITEM( '', ( #44 ), #45 );
#13 = STYLED_ITEM( '', ( #46 ), #47 );
#14 = STYLED_ITEM( '', ( #48 ), #49 );
#15 = STYLED_ITEM( '', ( #50 ), #51 );
#16 = STYLED_ITEM( '', ( #52 ), #53 );
#17 = STYLED_ITEM( '', ( #54 ), #55 );
#18 = STYLED_ITEM( '', ( #56 ), #57 );
#19 = STYLED_ITEM( '', ( #58 ), #59 );
#20 = STYLED_ITEM( '', ( #60 ), #61 );
#21 = STYLED_ITEM( '', ( #62 ), #63 );
#22 = STYLED_ITEM( '', ( #64 ), #65 );
#23 = STYLED_ITEM( '', ( #66 ), #67 );
#24 = STYLED_ITEM( '', ( #68 ), #69 );
#25 = STYLED_ITEM( '', ( #70 ), #71 );
#26 = STYLED_ITEM( '', ( #72 ), #73 );
#27 = APPLICATION_CONTEXT( 'core data for automotive mechanical design processes' );
#28 = PRODUCT_CATEGORY( 'part', 'NONE' );
#29 = PRODUCT_RELATED_PRODUCT_CATEGORY( 'detail', ' ', ( #74 ) );
#30 = PRODUCT_DEFINITION_SHAPE( 'NONE', 'NONE', #75 );
#31 = ADVANCED_BREP_SHAPE_REPRESENTATION( '_K0392.110', ( #76, #77 ), #6 );
#34 = UNCERTAINTY_MEASURE_WITH_UNIT( LENGTH_MEASURE( 0.00100000000000000 ), #36, '', '' );
#36 =  ( CONVERSION_BASED_UNIT( 'MILLIMETRE', #80 )LENGTH_UNIT(  )NAMED_UNIT( #83 ) );
#37 =  ( NAMED_UNIT( #85 )PLANE_ANGLE_UNIT(  )SI_UNIT( $, .RADIAN. ) );
#38 =  ( NAMED_UNIT( #85 )SI_UNIT( $, .STERADIAN. )SOLID_ANGLE_UNIT(  ) );
#40 = PRESENTATION_STYLE_ASSIGNMENT( ( #91 ) );
#41 = ADVANCED_FACE( '', ( #92, #93 ), #94, .F. );
#42 = PRESENTATION_STYLE_ASSIGNMENT( ( #95 ) );
#43 = ADVANCED_FACE( '', ( #96, #97 ), #98, .F. );
#44 = PRESENTATION_STYLE_ASSIGNMENT( ( #99 ) );
#45 = ADVANCED_FACE( '', ( #100, #101 ), #102, .F. );
#46 = PRESENTATION_STYLE_ASSIGNMENT( ( #103 ) );
#47 = ADVANCED_FACE( '', ( #104, #105 ), #106, .F. );
#48 = PRESENTATION_STYLE_ASSIGNMENT( ( #107 ) );
#49 = ADVANCED_FACE( '', ( #108, #109 ), #110, .F. );
#50 = PRESENTATION_STYLE_ASSIGNMENT( ( #111 ) );
#51 = ADVANCED_FACE( '', ( #112, #113 ), #114, .F. );
#52 = PRESENTATION_STYLE_ASSIGNMENT( ( #115 ) );
#53 = ADVANCED_FACE( '', ( #116, #117 ), #118, .F. );
#54 = PRESENTATION_STYLE_ASSIGNMENT( ( #119 ) );
#55 = ADVANCED_FACE( '', ( #120, #121 ), #122, .T. );
#56 = PRESENTATION_STYLE_ASSIGNMENT( ( #123 ) );
#57 = ADVANCED_FACE( '', ( #124, #125 ), #126, .T. );
#58 = PRESENTATION_STYLE_ASSIGNMENT( ( #127 ) );
#59 = ADVANCED_FACE( '', ( #128, #129 ), #130, .T. );
#60 = PRESENTATION_STYLE_ASSIGNMENT( ( #131 ) );
#61 = ADVANCED_FACE( '', ( #132, #133 ), #134, .F. );
#62 = PRESENTATION_STYLE_ASSIGNMENT( ( #135 ) );
#63 = ADVANCED_FACE( '', ( #136, #137 ), #138, .F. );
#64 = PRESENTATION_STYLE_ASSIGNMENT( ( #139 ) );
#65 = ADVANCED_FACE( '', ( #140, #141 ), #142, .F. );
#66 = PRESENTATION_STYLE_ASSIGNMENT( ( #143 ) );
#67 = ADVANCED_FACE( '', ( #144, #145 ), #146, .T. );
#68 = PRESENTATION_STYLE_ASSIGNMENT( ( #147 ) );
#69 = ADVANCED_FACE( '', ( #148, #149 ), #150, .F. );
#70 = PRESENTATION_STYLE_ASSIGNMENT( ( #151 ) );
#71 = ADVANCED_FACE( '', ( #152, #153 ), #154, .T. );
#72 = PRESENTATION_STYLE_ASSIGNMENT( ( #155 ) );
#73 = ADVANCED_FACE( '', ( #156, #157, #158 ), #159, .F. );
#74 = PRODUCT( '_K0392.110', '_K0392.110', 'PART-_K0392.110-DESC', ( #160 ) );
#75 = PRODUCT_DEFINITION( 'NONE', 'NONE', #161, #2 );
#76 = MANIFOLD_SOLID_BREP( '_K0392.110', #162 );
#77 = AXIS2_PLACEMENT_3D( '', #163, #164, #165 );
#80 = LENGTH_MEASURE_WITH_UNIT( LENGTH_MEASURE( 1.00000000000000 ), #166 );
#83 = DIMENSIONAL_EXPONENTS( 1.00000000000000, 0.000000000000000, 0.000000000000000, 0.000000000000000, 0.000000000000000, 0.000000000000000, 0.000000000000000 );
#85 = DIMENSIONAL_EXPONENTS( 0.000000000000000, 0.000000000000000, 0.000000000000000, 0.000000000000000, 0.000000000000000, 0.000000000000000, 0.000000000000000 );
#91 = SURFACE_STYLE_USAGE( .BOTH., #167 );
#92 = FACE_OUTER_BOUND( '', #168, .T. );
#93 = FACE_OUTER_BOUND( '', #169, .T. );
#94 = CYLINDRICAL_SURFACE( '', #170, 4.05000000000000 );
#95 = SURFACE_STYLE_USAGE( .BOTH., #171 );
#96 = FACE_OUTER_BOUND( '', #172, .T. );
#97 = FACE_BOUND( '', #173, .T. );
#98 = PLANE( '', #174 );
#99 = SURFACE_STYLE_USAGE( .BOTH., #175 );
#100 = FACE_OUTER_BOUND( '', #176, .T. );
#101 = FACE_OUTER_BOUND( '', #177, .T. );
#102 = CYLINDRICAL_SURFACE( '', #178, 4.05000000000000 );
#103 = SURFACE_STYLE_USAGE( .BOTH., #179 );
#104 = FACE_OUTER_BOUND( '', #180, .T. );
#105 = FACE_OUTER_BOUND( '', #181, .T. );
#106 = TOROIDAL_SURFACE( '', #182, 4.35000000000000, 0.500000000000000 );
#107 = SURFACE_STYLE_USAGE( .BOTH., #183 );
#108 = FACE_BOUND( '', #184, .T. );
#109 = FACE_OUTER_BOUND( '', #185, .T. );
#110 = PLANE( '', #186 );
#111 = SURFACE_STYLE_USAGE( .BOTH., #187 );
#112 = FACE_OUTER_BOUND( '', #188, .T. );
#113 = FACE_BOUND( '', #189, .T. );
#114 = CONICAL_SURFACE( '', #190, 857.167300702100, 1.02974425870000 );
#115 = SURFACE_STYLE_USAGE( .BOTH., #191 );
#116 = FACE_BOUND( '', #192, .T. );
#117 = FACE_OUTER_BOUND( '', #193, .T. );
#118 = PLANE( '', #194 );
#119 = SURFACE_STYLE_USAGE( .BOTH., #195 );
#120 = FACE_OUTER_BOUND( '', #196, .T. );
#121 = FACE_BOUND( '', #197, .T. );
#122 = CONICAL_SURFACE( '', #198, 15.5000000000000, 0.785398163400000 );
#123 = SURFACE_STYLE_USAGE( .BOTH., #199 );
#124 = FACE_OUTER_BOUND( '', #200, .T. );
#125 = FACE_BOUND( '', #201, .T. );
#126 = CONICAL_SURFACE( '', #202, 8.50000000000000, 0.785398163400000 );
#127 = SURFACE_STYLE_USAGE( .BOTH., #203 );
#128 = FACE_OUTER_BOUND( '', #204, .T. );
#129 = FACE_OUTER_BOUND( '', #205, .T. );
#130 = CYLINDRICAL_SURFACE( '', #206, 9.00000000000000 );
#131 = SURFACE_STYLE_USAGE( .BOTH., #207 );
#132 = FACE_OUTER_BOUND( '', #208, .T. );
#133 = FACE_BOUND( '', #209, .T. );
#134 = CONICAL_SURFACE( '', #210, 4.05000000000000, 0.785398163400000 );
#135 = SURFACE_STYLE_USAGE( .BOTH., #211 );
#136 = FACE_OUTER_BOUND( '', #212, .T. );
#137 = FACE_BOUND( '', #213, .T. );
#138 = CONICAL_SURFACE( '', #214, 866.025403784400, 1.04719755120000 );
#139 = SURFACE_STYLE_USAGE( .BOTH., #215 );
#140 = FACE_OUTER_BOUND( '', #216, .T. );
#141 = FACE_OUTER_BOUND( '', #217, .T. );
#142 = TOROIDAL_SURFACE( '', #218, 11.2400000000000, 2.24000000000000 );
#143 = SURFACE_STYLE_USAGE( .BOTH., #219 );
#144 = FACE_OUTER_BOUND( '', #220, .T. );
#145 = FACE_OUTER_BOUND( '', #221, .T. );
#146 = CYLINDRICAL_SURFACE( '', #222, 16.0000000000000 );
#147 = SURFACE_STYLE_USAGE( .BOTH., #223 );
#148 = FACE_OUTER_BOUND( '', #224, .T. );
#149 = FACE_BOUND( '', #225, .T. );
#150 = PLANE( '', #226 );
#151 = SURFACE_STYLE_USAGE( .BOTH., #227 );
#152 = FACE_BOUND( '', #228, .T. );
#153 = FACE_OUTER_BOUND( '', #229, .T. );
#154 = CONICAL_SURFACE( '', #230, 16.0000000000000, 0.785398163400000 );
#155 = SURFACE_STYLE_USAGE( .BOTH., #231 );
#156 = FACE_BOUND( '', #232, .T. );
#157 = FACE_OUTER_BOUND( '', #233, .T. );
#158 = FACE_OUTER_BOUND( '', #234, .T. );
#159 = TOROIDAL_SURFACE( '', #235, 4.05000000000000, 0.400000000000000 );
#160 = PRODUCT_CONTEXT( '', #27, 'mechanical' );
#161 = PRODUCT_DEFINITION_FORMATION_WITH_SPECIFIED_SOURCE( ' ', 'NONE', #74, .NOT_KNOWN. );
#162 = CLOSED_SHELL( '', ( #51, #63, #69, #55, #59, #57, #43, #45, #49, #47, #73, #53, #71, #67, #61, #65, #41 ) );
#163 = CARTESIAN_POINT( '', ( 0.000000000000000, 0.000000000000000, 0.000000000000000 ) );
#164 = DIRECTION( '', ( 0.000000000000000, 0.000000000000000, 1.00000000000000 ) );
#165 = DIRECTION( '', ( 1.00000000000000, 0.000000000000000, 0.000000000000000 ) );
#166 =  ( LENGTH_UNIT(  )NAMED_UNIT( #83 )SI_UNIT( .MILLI., .METRE. ) );
#167 = SURFACE_SIDE_STYLE( '', ( #237 ) );
#168 = EDGE_LOOP( '', ( #238 ) );
#169 = EDGE_LOOP( '', ( #239 ) );
#170 = AXIS2_PLACEMENT_3D( '', #240, #241, #242 );
#171 = SURFACE_SIDE_STYLE( '', ( #243 ) );
#172 = EDGE_LOOP( '', ( #244 ) );
#173 = EDGE_LOOP( '', ( #245 ) );
#174 = AXIS2_PLACEMENT_3D( '', #246, #247, #248 );
#175 = SURFACE_SIDE_STYLE( '', ( #249 ) );
#176 = EDGE_LOOP( '', ( #250 ) );
#177 = EDGE_LOOP( '', ( #251 ) );
#178 = AXIS2_PLACEMENT_3D( '', #252, #253, #254 );
#179 = SURFACE_SIDE_STYLE( '', ( #255 ) );
#180 = EDGE_LOOP( '', ( #256 ) );
#181 = EDGE_LOOP( '', ( #257 ) );
#182 = AXIS2_PLACEMENT_3D( '', #258, #259, #260 );
#183 = SURFACE_SIDE_STYLE( '', ( #261 ) );
#184 = EDGE_LOOP( '', ( #262 ) );
#185 = EDGE_LOOP( '', ( #263 ) );
#186 = AXIS2_PLACEMENT_3D( '', #264, #265, #266 );
#187 = SURFACE_SIDE_STYLE( '', ( #267 ) );
#188 = EDGE_LOOP( '', ( #268 ) );
#189 = VERTEX_LOOP( '', #269 );
#190 = AXIS2_PLACEMENT_3D( '', #270, #271, #272 );
#191 = SURFACE_SIDE_STYLE( '', ( #273 ) );
#192 = EDGE_LOOP( '', ( #274 ) );
#193 = EDGE_LOOP( '', ( #275 ) );
#194 = AXIS2_PLACEMENT_3D( '', #276, #277, #278 );
#195 = SURFACE_SIDE_STYLE( '', ( #279 ) );
#196 = EDGE_LOOP( '', ( #280 ) );
#197 = EDGE_LOOP( '', ( #281 ) );
#198 = AXIS2_PLACEMENT_3D( '', #282, #283, #284 );
#199 = SURFACE_SIDE_STYLE( '', ( #285 ) );
#200 = EDGE_LOOP( '', ( #286 ) );
#201 = EDGE_LOOP( '', ( #287 ) );
#202 = AXIS2_PLACEMENT_3D( '', #288, #289, #290 );
#203 = SURFACE_SIDE_STYLE( '', ( #291 ) );
#204 = EDGE_LOOP( '', ( #292 ) );
#205 = EDGE_LOOP( '', ( #293 ) );
#206 = AXIS2_PLACEMENT_3D( '', #294, #295, #296 );
#207 = SURFACE_SIDE_STYLE( '', ( #297 ) );
#208 = EDGE_LOOP( '', ( #298 ) );
#209 = EDGE_LOOP( '', ( #299 ) );
#210 = AXIS2_PLACEMENT_3D( '', #300, #301, #302 );
#211 = SURFACE_SIDE_STYLE( '', ( #303 ) );
#212 = EDGE_LOOP( '', ( #304 ) );
#213 = VERTEX_LOOP( '', #305 );
#214 = AXIS2_PLACEMENT_3D( '', #306, #307, #308 );
#215 = SURFACE_SIDE_STYLE( '', ( #309 ) );
#216 = EDGE_LOOP( '', ( #310 ) );
#217 = EDGE_LOOP( '', ( #311 ) );
#218 = AXIS2_PLACEMENT_3D( '', #312, #313, #314 );
#219 = SURFACE_SIDE_STYLE( '', ( #315 ) );
#220 = EDGE_LOOP( '', ( #316 ) );
#221 = EDGE_LOOP( '', ( #317 ) );
#222 = AXIS2_PLACEMENT_3D( '', #318, #319, #320 );
#223 = SURFACE_SIDE_STYLE( '', ( #321 ) );
#224 = EDGE_LOOP( '', ( #322 ) );
#225 = EDGE_LOOP( '', ( #323 ) );
#226 = AXIS2_PLACEMENT_3D( '', #324, #325, #326 );
#227 = SURFACE_SIDE_STYLE( '', ( #327 ) );
#228 = EDGE_LOOP( '', ( #328 ) );
#229 = EDGE_LOOP( '', ( #329 ) );
#230 = AXIS2_PLACEMENT_3D( '', #330, #331, #332 );
#231 = SURFACE_SIDE_STYLE( '', ( #333 ) );
#232 = VERTEX_LOOP( '', #334 );
#233 = EDGE_LOOP( '', ( #335 ) );
#234 = EDGE_LOOP( '', ( #336 ) );
#235 = AXIS2_PLACEMENT_3D( '', #337, #338, #339 );
#237 = SURFACE_STYLE_FILL_AREA( #340 );
#238 = ORIENTED_EDGE( '', *, *, #341, .F. );
#239 = ORIENTED_EDGE( '', *, *, #342, .T. );
#240 = CARTESIAN_POINT( '', ( 0.000000000000000, 0.000000000000000, 0.000000000000000 ) );
#241 = DIRECTION( '', ( -0.000000000000000, 1.00000000000000, 0.000000000000000 ) );
#242 = DIRECTION( '', ( 0.000000000000000, 0.000000000000000, -1.00000000000000 ) );
#243 = SURFACE_STYLE_FILL_AREA( #343 );
#244 = ORIENTED_EDGE( '', *, *, #344, .F. );
#245 = ORIENTED_EDGE( '', *, *, #345, .T. );
#246 = CARTESIAN_POINT( '', ( 5.05000000000000, 10.0000000000000, 0.000000000000000 ) );
#247 = DIRECTION( '', ( 0.000000000000000, -1.00000000000000, -0.000000000000000 ) );
#248 = DIRECTION( '', ( 0.000000000000000, 0.000000000000000, -1.00000000000000 ) );
#249 = SURFACE_STYLE_FILL_AREA( #346 );
#250 = ORIENTED_EDGE( '', *, *, #347, .F. );
#251 = ORIENTED_EDGE( '', *, *, #348, .T. );
#252 = CARTESIAN_POINT( '', ( 0.000000000000000, 0.000000000000000, 0.000000000000000 ) );
#253 = DIRECTION( '', ( -0.000000000000000, 1.00000000000000, 0.000000000000000 ) );
#254 = DIRECTION( '', ( 0.000000000000000, 0.000000000000000, -1.00000000000000 ) );
#255 = SURFACE_STYLE_FILL_AREA( #349 );
#256 = ORIENTED_EDGE( '', *, *, #350, .F. );
#257 = ORIENTED_EDGE( '', *, *, #351, .F. );
#258 = CARTESIAN_POINT( '', ( 0.000000000000000, 8.00000000000000, 0.000000000000000 ) );
#259 = DIRECTION( '', ( 0.000000000000000, -1.00000000000000, -0.000000000000000 ) );
#260 = DIRECTION( '', ( 0.000000000000000, 0.000000000000000, -1.00000000000000 ) );
#261 = SURFACE_STYLE_FILL_AREA( #352 );
#262 = ORIENTED_EDGE( '', *, *, #348, .F. );
#263 = ORIENTED_EDGE( '', *, *, #350, .T. );
#264 = CARTESIAN_POINT( '', ( 4.35000000000000, 8.50000000000000, 0.000000000000000 ) );
#265 = DIRECTION( '', ( 0.000000000000000, 1.00000000000000, 0.000000000000000 ) );
#266 = DIRECTION( '', ( 0.000000000000000, -0.000000000000000, 1.00000000000000 ) );
#267 = SURFACE_STYLE_FILL_AREA( #353 );
#268 = ORIENTED_EDGE( '', *, *, #354, .T. );
#269 = VERTEX_POINT( '', #355 );
#270 = CARTESIAN_POINT( '', ( 0.000000000000000, -514.438074910054, 0.000000000000000 ) );
#271 = DIRECTION( '', ( -0.000000000000000, -1.00000000000000, -0.000000000000000 ) );
#272 = DIRECTION( '', ( 0.000000000000000, 0.000000000000000, -1.00000000000000 ) );
#273 = SURFACE_STYLE_FILL_AREA( #356 );
#274 = ORIENTED_EDGE( '', *, *, #354, .F. );
#275 = ORIENTED_EDGE( '', *, *, #357, .T. );
#276 = CARTESIAN_POINT( '', ( 15.5000000000000, 0.000000000000000, 0.000000000000000 ) );
#277 = DIRECTION( '', ( 0.000000000000000, 1.00000000000000, 0.000000000000000 ) );
#278 = DIRECTION( '', ( 0.000000000000000, -0.000000000000000, 1.00000000000000 ) );
#279 = SURFACE_STYLE_FILL_AREA( #358 );
#280 = ORIENTED_EDGE( '', *, *, #359, .F. );
#281 = ORIENTED_EDGE( '', *, *, #360, .T. );
#282 = CARTESIAN_POINT( '', ( 0.000000000000000, 6.00000000000000, 0.000000000000000 ) );
#283 = DIRECTION( '', ( -0.000000000000000, -1.00000000000000, -0.000000000000000 ) );
#284 = DIRECTION( '', ( 0.000000000000000, 0.000000000000000, -1.00000000000000 ) );
#285 = SURFACE_STYLE_FILL_AREA( #361 );
#286 = ORIENTED_EDGE( '', *, *, #362, .F. );
#287 = ORIENTED_EDGE( '', *, *, #344, .T. );
#288 = CARTESIAN_POINT( '', ( 0.000000000000000, 10.0000000000000, 0.000000000000000 ) );
#289 = DIRECTION( '', ( -0.000000000000000, -1.00000000000000, -0.000000000000000 ) );
#290 = DIRECTION( '', ( 0.000000000000000, 0.000000000000000, -1.00000000000000 ) );
#291 = SURFACE_STYLE_FILL_AREA( #363 );
#292 = ORIENTED_EDGE( '', *, *, #364, .F. );
#293 = ORIENTED_EDGE( '', *, *, #362, .T. );
#294 = CARTESIAN_POINT( '', ( 0.000000000000000, 0.000000000000000, 0.000000000000000 ) );
#295 = DIRECTION( '', ( -0.000000000000000, 1.00000000000000, 0.000000000000000 ) );
#296 = DIRECTION( '', ( 0.000000000000000, 0.000000000000000, -1.00000000000000 ) );
#297 = SURFACE_STYLE_FILL_AREA( #365 );
#298 = ORIENTED_EDGE( '', *, *, #345, .F. );
#299 = ORIENTED_EDGE( '', *, *, #347, .T. );
#300 = CARTESIAN_POINT( '', ( 0.000000000000000, 9.33400000000000, 0.000000000000000 ) );
#301 = DIRECTION( '', ( -0.000000000000000, 1.00000000000000, 0.000000000000000 ) );
#302 = DIRECTION( '', ( 0.000000000000000, -0.000000000000000, 1.00000000000000 ) );
#303 = SURFACE_STYLE_FILL_AREA( #366 );
#304 = ORIENTED_EDGE( '', *, *, #342, .F. );
#305 = VERTEX_POINT( '', #367 );
#306 = CARTESIAN_POINT( '', ( 0.000000000000000, 501.661731409782, 0.000000000000000 ) );
#307 = DIRECTION( '', ( -0.000000000000000, 1.00000000000000, 0.000000000000000 ) );
#308 = DIRECTION( '', ( 0.000000000000000, -0.000000000000000, 1.00000000000000 ) );
#309 = SURFACE_STYLE_FILL_AREA( #368 );
#310 = ORIENTED_EDGE( '', *, *, #369, .F. );
#311 = ORIENTED_EDGE( '', *, *, #364, .T. );
#312 = CARTESIAN_POINT( '', ( 0.000000000000000, 8.24000000000000, 0.000000000000000 ) );
#313 = DIRECTION( '', ( 0.000000000000000, -1.00000000000000, -0.000000000000000 ) );
#314 = DIRECTION( '', ( 0.000000000000000, 0.000000000000000, -1.00000000000000 ) );
#315 = SURFACE_STYLE_FILL_AREA( #370 );
#316 = ORIENTED_EDGE( '', *, *, #371, .F. );
#317 = ORIENTED_EDGE( '', *, *, #359, .T. );
#318 = CARTESIAN_POINT( '', ( 0.000000000000000, 0.000000000000000, 0.000000000000000 ) );
#319 = DIRECTION( '', ( -0.000000000000000, 1.00000000000000, 0.000000000000000 ) );
#320 = DIRECTION( '', ( 0.000000000000000, 0.000000000000000, -1.00000000000000 ) );
#321 = SURFACE_STYLE_FILL_AREA( #372 );
#322 = ORIENTED_EDGE( '', *, *, #360, .F. );
#323 = ORIENTED_EDGE( '', *, *, #369, .T. );
#324 = CARTESIAN_POINT( '', ( 11.0000000000000, 6.00000000000000, 0.000000000000000 ) );
#325 = DIRECTION( '', ( 0.000000000000000, -1.00000000000000, -0.000000000000000 ) );
#326 = DIRECTION( '', ( 0.000000000000000, 0.000000000000000, -1.00000000000000 ) );
#327 = SURFACE_STYLE_FILL_AREA( #373 );
#328 = ORIENTED_EDGE( '', *, *, #357, .F. );
#329 = ORIENTED_EDGE( '', *, *, #371, .T. );
#330 = CARTESIAN_POINT( '', ( 0.000000000000000, 0.500000000000000, 0.000000000000000 ) );
#331 = DIRECTION( '', ( -0.000000000000000, 1.00000000000000, 0.000000000000000 ) );
#332 = DIRECTION( '', ( 0.000000000000000, -0.000000000000000, 1.00000000000000 ) );
#333 = SURFACE_STYLE_FILL_AREA( #374 );
#334 = VERTEX_POINT( '', #375 );
#335 = ORIENTED_EDGE( '', *, *, #351, .T. );
#336 = ORIENTED_EDGE( '', *, *, #341, .T. );
#337 = CARTESIAN_POINT( '', ( 0.000000000000000, 8.33333333333333, 0.000000000000000 ) );
#338 = DIRECTION( '', ( 0.000000000000000, -1.00000000000000, -0.000000000000000 ) );
#339 = DIRECTION( '', ( 0.000000000000000, 0.000000000000000, -1.00000000000000 ) );
#340 = FILL_AREA_STYLE( '', ( #376 ) );
#341 = EDGE_CURVE( '', #377, #377, #378, .T. );
#342 = EDGE_CURVE( '', #379, #379, #380, .T. );
#343 = FILL_AREA_STYLE( '', ( #381 ) );
#344 = EDGE_CURVE( '', #382, #382, #383, .T. );
#345 = EDGE_CURVE( '', #384, #384, #385, .T. );
#346 = FILL_AREA_STYLE( '', ( #386 ) );
#347 = EDGE_CURVE( '', #387, #387, #388, .T. );
#348 = EDGE_CURVE( '', #389, #389, #390, .T. );
#349 = FILL_AREA_STYLE( '', ( #391 ) );
#350 = EDGE_CURVE( '', #392, #392, #393, .T. );
#351 = EDGE_CURVE( '', #394, #394, #395, .T. );
#352 = FILL_AREA_STYLE( '', ( #396 ) );
#353 = FILL_AREA_STYLE( '', ( #397 ) );
#354 = EDGE_CURVE( '', #398, #398, #399, .T. );
#355 = CARTESIAN_POINT( '', ( 0.000000000000000, 0.600000000000000, 0.000000000000000 ) );
#356 = FILL_AREA_STYLE( '', ( #400 ) );
#357 = EDGE_CURVE( '', #401, #401, #402, .T. );
#358 = FILL_AREA_STYLE( '', ( #403 ) );
#359 = EDGE_CURVE( '', #404, #404, #405, .T. );
#360 = EDGE_CURVE( '', #406, #406, #407, .T. );
#361 = FILL_AREA_STYLE( '', ( #408 ) );
#362 = EDGE_CURVE( '', #409, #409, #410, .T. );
#363 = FILL_AREA_STYLE( '', ( #411 ) );
#364 = EDGE_CURVE( '', #412, #412, #413, .T. );
#365 = FILL_AREA_STYLE( '', ( #414 ) );
#366 = FILL_AREA_STYLE( '', ( #415 ) );
#367 = CARTESIAN_POINT( '', ( 0.000000000000000, 1.66173140978202, 0.000000000000000 ) );
#368 = FILL_AREA_STYLE( '', ( #416 ) );
#369 = EDGE_CURVE( '', #417, #417, #418, .T. );
#370 = FILL_AREA_STYLE( '', ( #419 ) );
#371 = EDGE_CURVE( '', #420, #420, #421, .T. );
#372 = FILL_AREA_STYLE( '', ( #422 ) );
#373 = FILL_AREA_STYLE( '', ( #423 ) );
#374 = FILL_AREA_STYLE( '', ( #424 ) );
#375 = CARTESIAN_POINT( '', ( 0.000000000000000, 8.33333333333333, -4.45000000000000 ) );
#376 = FILL_AREA_STYLE_COLOUR( '', #425 );
#377 = VERTEX_POINT( '', #426 );
#378 = CIRCLE( '', #427, 4.05000000000000 );
#379 = VERTEX_POINT( '', #428 );
#380 = CIRCLE( '', #429, 4.05000000000000 );
#381 = FILL_AREA_STYLE_COLOUR( '', #430 );
#382 = VERTEX_POINT( '', #431 );
#383 = CIRCLE( '', #432, 8.50000000000000 );
#384 = VERTEX_POINT( '', #433 );
#385 = CIRCLE( '', #434, 4.71600000000000 );
#386 = FILL_AREA_STYLE_COLOUR( '', #435 );
#387 = VERTEX_POINT( '', #436 );
#388 = CIRCLE( '', #437, 4.05000000000000 );
#389 = VERTEX_POINT( '', #438 );
#390 = CIRCLE( '', #439, 4.05000000000000 );
#391 = FILL_AREA_STYLE_COLOUR( '', #440 );
#392 = VERTEX_POINT( '', #441 );
#393 = CIRCLE( '', #442, 4.35000000000000 );
#394 = VERTEX_POINT( '', #443 );
#395 = CIRCLE( '', #444, 4.41557219190000 );
#396 = FILL_AREA_STYLE_COLOUR( '', #445 );
#397 = FILL_AREA_STYLE_COLOUR( '', #446 );
#398 = VERTEX_POINT( '', #447 );
#399 = CIRCLE( '', #448, 0.998567689400000 );
#400 = FILL_AREA_STYLE_COLOUR( '', #449 );
#401 = VERTEX_POINT( '', #450 );
#402 = CIRCLE( '', #451, 15.5000000000000 );
#403 = FILL_AREA_STYLE_COLOUR( '', #452 );
#404 = VERTEX_POINT( '', #453 );
#405 = CIRCLE( '', #454, 16.0000000000000 );
#406 = VERTEX_POINT( '', #455 );
#407 = CIRCLE( '', #456, 15.5000000000000 );
#408 = FILL_AREA_STYLE_COLOUR( '', #457 );
#409 = VERTEX_POINT( '', #458 );
#410 = CIRCLE( '', #459, 9.00000000000000 );
#411 = FILL_AREA_STYLE_COLOUR( '', #460 );
#412 = VERTEX_POINT( '', #461 );
#413 = CIRCLE( '', #462, 9.00000000000000 );
#414 = FILL_AREA_STYLE_COLOUR( '', #463 );
#415 = FILL_AREA_STYLE_COLOUR( '', #464 );
#416 = FILL_AREA_STYLE_COLOUR( '', #465 );
#417 = VERTEX_POINT( '', #466 );
#418 = CIRCLE( '', #467, 11.2400000000000 );
#419 = FILL_AREA_STYLE_COLOUR( '', #468 );
#420 = VERTEX_POINT( '', #469 );
#421 = CIRCLE( '', #470, 16.0000000000000 );
#422 = FILL_AREA_STYLE_COLOUR( '', #471 );
#423 = FILL_AREA_STYLE_COLOUR( '', #472 );
#424 = FILL_AREA_STYLE_COLOUR( '', #473 );
#425 = COLOUR_RGB( '', 0.689999997600000, 0.689999997600000, 0.689999997600000 );
#426 = CARTESIAN_POINT( '', ( 0.000000000000000, 7.93333333333333, -4.05000000000000 ) );
#427 = AXIS2_PLACEMENT_3D( '', #474, #475, #476 );
#428 = CARTESIAN_POINT( '', ( 0.000000000000000, 4.00000000000000, -4.05000000000000 ) );
#429 = AXIS2_PLACEMENT_3D( '', #477, #478, #479 );
#430 = COLOUR_RGB( '', 0.689999997600000, 0.689999997600000, 0.689999997600000 );
#431 = CARTESIAN_POINT( '', ( 0.000000000000000, 10.0000000000000, -8.50000000000000 ) );
#432 = AXIS2_PLACEMENT_3D( '', #480, #481, #482 );
#433 = CARTESIAN_POINT( '', ( 0.000000000000000, 10.0000000000000, -4.71600000000000 ) );
#434 = AXIS2_PLACEMENT_3D( '', #483, #484, #485 );
#435 = COLOUR_RGB( '', 0.689999997600000, 0.689999997600000, 0.689999997600000 );
#436 = CARTESIAN_POINT( '', ( 0.000000000000000, 9.33400000000000, -4.05000000000000 ) );
#437 = AXIS2_PLACEMENT_3D( '', #486, #487, #488 );
#438 = CARTESIAN_POINT( '', ( 0.000000000000000, 8.50000000000000, -4.05000000000000 ) );
#439 = AXIS2_PLACEMENT_3D( '', #489, #490, #491 );
#440 = COLOUR_RGB( '', 0.689999997600000, 0.689999997600000, 0.689999997600000 );
#441 = CARTESIAN_POINT( '', ( 0.000000000000000, 8.50000000000000, -4.35000000000000 ) );
#442 = AXIS2_PLACEMENT_3D( '', #492, #493, #494 );
#443 = CARTESIAN_POINT( '', ( 0.000000000000000, 8.49568163940683, 4.41557219193352 ) );
#444 = AXIS2_PLACEMENT_3D( '', #495, #496, #497 );
#445 = COLOUR_RGB( '', 0.689999997600000, 0.689999997600000, 0.689999997600000 );
#446 = COLOUR_RGB( '', 0.689999997600000, 0.689999997600000, 0.689999997600000 );
#447 = CARTESIAN_POINT( '', ( 0.000000000000000, 0.000000000000000, -0.998567689410311 ) );
#448 = AXIS2_PLACEMENT_3D( '', #498, #499, #500 );
#449 = COLOUR_RGB( '', 0.689999997600000, 0.689999997600000, 0.689999997600000 );
#450 = CARTESIAN_POINT( '', ( 0.000000000000000, 0.000000000000000, -15.5000000000000 ) );
#451 = AXIS2_PLACEMENT_3D( '', #501, #502, #503 );
#452 = COLOUR_RGB( '', 0.689999997600000, 0.689999997600000, 0.689999997600000 );
#453 = CARTESIAN_POINT( '', ( 0.000000000000000, 5.50000000000000, -16.0000000000000 ) );
#454 = AXIS2_PLACEMENT_3D( '', #504, #505, #506 );
#455 = CARTESIAN_POINT( '', ( 0.000000000000000, 6.00000000000000, -15.5000000000000 ) );
#456 = AXIS2_PLACEMENT_3D( '', #507, #508, #509 );
#457 = COLOUR_RGB( '', 0.689999997600000, 0.689999997600000, 0.689999997600000 );
#458 = CARTESIAN_POINT( '', ( 0.000000000000000, 9.50000000000000, -9.00000000000000 ) );
#459 = AXIS2_PLACEMENT_3D( '', #510, #511, #512 );
#460 = COLOUR_RGB( '', 0.689999997600000, 0.689999997600000, 0.689999997600000 );
#461 = CARTESIAN_POINT( '', ( 0.000000000000000, 8.24000000000000, -9.00000000000000 ) );
#462 = AXIS2_PLACEMENT_3D( '', #513, #514, #515 );
#463 = COLOUR_RGB( '', 0.689999997600000, 0.689999997600000, 0.689999997600000 );
#464 = COLOUR_RGB( '', 0.689999997600000, 0.689999997600000, 0.689999997600000 );
#465 = COLOUR_RGB( '', 0.689999997600000, 0.689999997600000, 0.689999997600000 );
#466 = CARTESIAN_POINT( '', ( 0.000000000000000, 6.00000000000000, -11.2400000000000 ) );
#467 = AXIS2_PLACEMENT_3D( '', #516, #517, #518 );
#468 = COLOUR_RGB( '', 0.689999997600000, 0.689999997600000, 0.689999997600000 );
#469 = CARTESIAN_POINT( '', ( 0.000000000000000, 0.500000000000000, -16.0000000000000 ) );
#470 = AXIS2_PLACEMENT_3D( '', #519, #520, #521 );
#471 = COLOUR_RGB( '', 0.689999997600000, 0.689999997600000, 0.689999997600000 );
#472 = COLOUR_RGB( '', 0.689999997600000, 0.689999997600000, 0.689999997600000 );
#473 = COLOUR_RGB( '', 0.689999997600000, 0.689999997600000, 0.689999997600000 );
#474 = CARTESIAN_POINT( '', ( 0.000000000000000, 7.93333333333333, 0.000000000000000 ) );
#475 = DIRECTION( '', ( 0.000000000000000, -1.00000000000000, -0.000000000000000 ) );
#476 = DIRECTION( '', ( 0.000000000000000, 0.000000000000000, -1.00000000000000 ) );
#477 = CARTESIAN_POINT( '', ( 0.000000000000000, 4.00000000000000, 0.000000000000000 ) );
#478 = DIRECTION( '', ( 0.000000000000000, -1.00000000000000, -0.000000000000000 ) );
#479 = DIRECTION( '', ( 0.000000000000000, 0.000000000000000, -1.00000000000000 ) );
#480 = CARTESIAN_POINT( '', ( 0.000000000000000, 10.0000000000000, 0.000000000000000 ) );
#481 = DIRECTION( '', ( 0.000000000000000, -1.00000000000000, -0.000000000000000 ) );
#482 = DIRECTION( '', ( 0.000000000000000, 0.000000000000000, -1.00000000000000 ) );
#483 = CARTESIAN_POINT( '', ( 0.000000000000000, 10.0000000000000, 0.000000000000000 ) );
#484 = DIRECTION( '', ( 0.000000000000000, -1.00000000000000, -0.000000000000000 ) );
#485 = DIRECTION( '', ( 0.000000000000000, 0.000000000000000, -1.00000000000000 ) );
#486 = CARTESIAN_POINT( '', ( 0.000000000000000, 9.33400000000000, 0.000000000000000 ) );
#487 = DIRECTION( '', ( 0.000000000000000, -1.00000000000000, -0.000000000000000 ) );
#488 = DIRECTION( '', ( 0.000000000000000, 0.000000000000000, -1.00000000000000 ) );
#489 = CARTESIAN_POINT( '', ( 0.000000000000000, 8.50000000000000, 0.000000000000000 ) );
#490 = DIRECTION( '', ( 0.000000000000000, -1.00000000000000, -0.000000000000000 ) );
#491 = DIRECTION( '', ( 0.000000000000000, 0.000000000000000, -1.00000000000000 ) );
#492 = CARTESIAN_POINT( '', ( 0.000000000000000, 8.50000000000000, 0.000000000000000 ) );
#493 = DIRECTION( '', ( 0.000000000000000, -1.00000000000000, -0.000000000000000 ) );
#494 = DIRECTION( '', ( 0.000000000000000, 0.000000000000000, -1.00000000000000 ) );
#495 = CARTESIAN_POINT( '', ( 0.000000000000000, 8.49568163940683, 0.000000000000000 ) );
#496 = DIRECTION( '', ( 0.000000000000000, 1.00000000000000, 0.000000000000000 ) );
#497 = DIRECTION( '', ( 0.000000000000000, -0.000000000000000, 1.00000000000000 ) );
#498 = CARTESIAN_POINT( '', ( 0.000000000000000, 0.000000000000000, 0.000000000000000 ) );
#499 = DIRECTION( '', ( 0.000000000000000, -1.00000000000000, -0.000000000000000 ) );
#500 = DIRECTION( '', ( 0.000000000000000, 0.000000000000000, -1.00000000000000 ) );
#501 = CARTESIAN_POINT( '', ( 0.000000000000000, 0.000000000000000, 0.000000000000000 ) );
#502 = DIRECTION( '', ( 0.000000000000000, -1.00000000000000, -0.000000000000000 ) );
#503 = DIRECTION( '', ( 0.000000000000000, 0.000000000000000, -1.00000000000000 ) );
#504 = CARTESIAN_POINT( '', ( 0.000000000000000, 5.50000000000000, 0.000000000000000 ) );
#505 = DIRECTION( '', ( 0.000000000000000, -1.00000000000000, -0.000000000000000 ) );
#506 = DIRECTION( '', ( 0.000000000000000, 0.000000000000000, -1.00000000000000 ) );
#507 = CARTESIAN_POINT( '', ( 0.000000000000000, 6.00000000000000, 0.000000000000000 ) );
#508 = DIRECTION( '', ( 0.000000000000000, -1.00000000000000, -0.000000000000000 ) );
#509 = DIRECTION( '', ( 0.000000000000000, 0.000000000000000, -1.00000000000000 ) );
#510 = CARTESIAN_POINT( '', ( 0.000000000000000, 9.50000000000000, 0.000000000000000 ) );
#511 = DIRECTION( '', ( 0.000000000000000, -1.00000000000000, -0.000000000000000 ) );
#512 = DIRECTION( '', ( 0.000000000000000, 0.000000000000000, -1.00000000000000 ) );
#513 = CARTESIAN_POINT( '', ( 0.000000000000000, 8.24000000000000, 0.000000000000000 ) );
#514 = DIRECTION( '', ( 0.000000000000000, -1.00000000000000, -0.000000000000000 ) );
#515 = DIRECTION( '', ( 0.000000000000000, 0.000000000000000, -1.00000000000000 ) );
#516 = CARTESIAN_POINT( '', ( 0.000000000000000, 6.00000000000000, 0.000000000000000 ) );
#517 = DIRECTION( '', ( 0.000000000000000, -1.00000000000000, -0.000000000000000 ) );
#518 = DIRECTION( '', ( 0.000000000000000, 0.000000000000000, -1.00000000000000 ) );
#519 = CARTESIAN_POINT( '', ( 0.000000000000000, 0.500000000000000, 0.000000000000000 ) );
#520 = DIRECTION( '', ( 0.000000000000000, -1.00000000000000, -0.000000000000000 ) );
#521 = DIRECTION( '', ( 0.000000000000000, 0.000000000000000, -1.00000000000000 ) );
ENDSEC;
END-ISO-10303-21;
