ISO-10303-21;
HEADER;
FILE_DESCRIPTION( ( 'STEP AP214' ), '1' );
FILE_NAME( '//goodhand-server/Shared Folders/GoodHand Data/Kipp CAD/K1129/K1129.10112.stp', '2020-12-10T10:17:09', ( '' ), ( '' ), ' ', 'PARTsolutions', ' ' );
FILE_SCHEMA( ( 'AUTOMOTIVE_DESIGN { 1 0 10303 214 1 1 1 1 }' ) );
ENDSEC;
DATA;
#1 = MECHANICAL_DESIGN_GEOMETRIC_PRESENTATION_REPRESENTATION( ' ', ( #10, #11, #12, #13, #14, #15, #16, #17, #18, #19, #20, #21 ), #6 );
#2 = PRODUCT_DEFINITION_CONTEXT( '', #22, 'design' );
#3 = APPLICATION_PROTOCOL_DEFINITION( 'international standard', 'automotive_design', 2001, #22 );
#4 = PRODUCT_CATEGORY_RELATIONSHIP( 'NONE', 'NONE', #23, #24 );
#5 = SHAPE_DEFINITION_REPRESENTATION( #25, #26 );
#6 =  ( GEOMETRIC_REPRESENTATION_CONTEXT( 3 )GLOBAL_UNCERTAINTY_ASSIGNED_CONTEXT( ( #29 ) )GLOBAL_UNIT_ASSIGNED_CONTEXT( ( #31, #32, #33 ) )REPRESENTATION_CONTEXT( 'NONE', 'WORKSPACE' ) );
#10 = STYLED_ITEM( '', ( #35 ), #36 );
#11 = STYLED_ITEM( '', ( #37 ), #38 );
#12 = STYLED_ITEM( '', ( #39 ), #40 );
#13 = STYLED_ITEM( '', ( #41 ), #42 );
#14 = STYLED_ITEM( '', ( #43 ), #44 );
#15 = STYLED_ITEM( '', ( #45 ), #46 );
#16 = STYLED_ITEM( '', ( #47 ), #48 );
#17 = STYLED_ITEM( '', ( #49 ), #50 );
#18 = STYLED_ITEM( '', ( #51 ), #52 );
#19 = STYLED_ITEM( '', ( #53 ), #54 );
#20 = STYLED_ITEM( '', ( #55 ), #56 );
#21 = STYLED_ITEM( '', ( #57 ), #58 );
#22 = APPLICATION_CONTEXT( 'core data for automotive mechanical design processes' );
#23 = PRODUCT_CATEGORY( 'part', 'NONE' );
#24 = PRODUCT_RELATED_PRODUCT_CATEGORY( 'detail', ' ', ( #59 ) );
#25 = PRODUCT_DEFINITION_SHAPE( 'NONE', 'NONE', #60 );
#26 = ADVANCED_BREP_SHAPE_REPRESENTATION( '_K1129.10112', ( #61, #62 ), #6 );
#29 = UNCERTAINTY_MEASURE_WITH_UNIT( LENGTH_MEASURE( 0.00100000000000000 ), #31, '', '' );
#31 =  ( CONVERSION_BASED_UNIT( 'MILLIMETRE', #65 )LENGTH_UNIT(  )NAMED_UNIT( #68 ) );
#32 =  ( NAMED_UNIT( #70 )PLANE_ANGLE_UNIT(  )SI_UNIT( $, .RADIAN. ) );
#33 =  ( NAMED_UNIT( #70 )SI_UNIT( $, .STERADIAN. )SOLID_ANGLE_UNIT(  ) );
#35 = PRESENTATION_STYLE_ASSIGNMENT( ( #76 ) );
#36 = ADVANCED_FACE( '', ( #77, #78 ), #79, .F. );
#37 = PRESENTATION_STYLE_ASSIGNMENT( ( #80 ) );
#38 = ADVANCED_FACE( '', ( #81, #82 ), #83, .T. );
#39 = PRESENTATION_STYLE_ASSIGNMENT( ( #84 ) );
#40 = ADVANCED_FACE( '', ( #85 ), #86, .T. );
#41 = PRESENTATION_STYLE_ASSIGNMENT( ( #87 ) );
#42 = ADVANCED_FACE( '', ( #88 ), #89, .T. );
#43 = PRESENTATION_STYLE_ASSIGNMENT( ( #90 ) );
#44 = ADVANCED_FACE( '', ( #91, #92 ), #93, .T. );
#45 = PRESENTATION_STYLE_ASSIGNMENT( ( #94 ) );
#46 = ADVANCED_FACE( '', ( #95 ), #96, .T. );
#47 = PRESENTATION_STYLE_ASSIGNMENT( ( #97 ) );
#48 = ADVANCED_FACE( '', ( #98 ), #99, .F. );
#49 = PRESENTATION_STYLE_ASSIGNMENT( ( #100 ) );
#50 = ADVANCED_FACE( '', ( #101 ), #102, .T. );
#51 = PRESENTATION_STYLE_ASSIGNMENT( ( #103 ) );
#52 = ADVANCED_FACE( '', ( #104, #105 ), #106, .T. );
#53 = PRESENTATION_STYLE_ASSIGNMENT( ( #107 ) );
#54 = ADVANCED_FACE( '', ( #108 ), #109, .T. );
#55 = PRESENTATION_STYLE_ASSIGNMENT( ( #110 ) );
#56 = ADVANCED_FACE( '', ( #111 ), #112, .T. );
#57 = PRESENTATION_STYLE_ASSIGNMENT( ( #113 ) );
#58 = ADVANCED_FACE( '', ( #114 ), #115, .F. );
#59 = PRODUCT( '_K1129.10112', '_K1129.10112', 'PART-_K1129.10112-DESC', ( #116 ) );
#60 = PRODUCT_DEFINITION( 'NONE', 'NONE', #117, #2 );
#61 = MANIFOLD_SOLID_BREP( '_K1129.10112', #118 );
#62 = AXIS2_PLACEMENT_3D( '', #119, #120, #121 );
#65 = LENGTH_MEASURE_WITH_UNIT( LENGTH_MEASURE( 1.00000000000000 ), #122 );
#68 = DIMENSIONAL_EXPONENTS( 1.00000000000000, 0.000000000000000, 0.000000000000000, 0.000000000000000, 0.000000000000000, 0.000000000000000, 0.000000000000000 );
#70 = DIMENSIONAL_EXPONENTS( 0.000000000000000, 0.000000000000000, 0.000000000000000, 0.000000000000000, 0.000000000000000, 0.000000000000000, 0.000000000000000 );
#76 = SURFACE_STYLE_USAGE( .BOTH., #123 );
#77 = FACE_OUTER_BOUND( '', #124, .T. );
#78 = FACE_BOUND( '', #125, .T. );
#79 = PLANE( '', #126 );
#80 = SURFACE_STYLE_USAGE( .BOTH., #127 );
#81 = FACE_OUTER_BOUND( '', #128, .T. );
#82 = FACE_BOUND( '', #129, .T. );
#83 = CONICAL_SURFACE( '', #130, 23.7157626604000, 0.769690200100000 );
#84 = SURFACE_STYLE_USAGE( .BOTH., #131 );
#85 = FACE_OUTER_BOUND( '', #132, .T. );
#86 = PLANE( '', #133 );
#87 = SURFACE_STYLE_USAGE( .BOTH., #134 );
#88 = FACE_OUTER_BOUND( '', #135, .T. );
#89 = PLANE( '', #136 );
#90 = SURFACE_STYLE_USAGE( .BOTH., #137 );
#91 = FACE_BOUND( '', #138, .T. );
#92 = FACE_OUTER_BOUND( '', #139, .T. );
#93 = CONICAL_SURFACE( '', #140, 23.6029427191000, 0.801106126700000 );
#94 = SURFACE_STYLE_USAGE( .BOTH., #141 );
#95 = FACE_OUTER_BOUND( '', #142, .T. );
#96 = PLANE( '', #143 );
#97 = SURFACE_STYLE_USAGE( .BOTH., #144 );
#98 = FACE_OUTER_BOUND( '', #145, .T. );
#99 = PLANE( '', #146 );
#100 = SURFACE_STYLE_USAGE( .BOTH., #147 );
#101 = FACE_OUTER_BOUND( '', #148, .T. );
#102 = PLANE( '', #149 );
#103 = SURFACE_STYLE_USAGE( .BOTH., #150 );
#104 = FACE_BOUND( '', #151, .T. );
#105 = FACE_OUTER_BOUND( '', #152, .T. );
#106 = CONICAL_SURFACE( '', #153, 24.2000572809000, 0.0314159265000000 );
#107 = SURFACE_STYLE_USAGE( .BOTH., #154 );
#108 = FACE_OUTER_BOUND( '', #155, .T. );
#109 = PLANE( '', #156 );
#110 = SURFACE_STYLE_USAGE( .BOTH., #157 );
#111 = FACE_OUTER_BOUND( '', #158, .T. );
#112 = PLANE( '', #159 );
#113 = SURFACE_STYLE_USAGE( .BOTH., #160 );
#114 = FACE_OUTER_BOUND( '', #161, .T. );
#115 = PLANE( '', #162 );
#116 = PRODUCT_CONTEXT( '', #22, 'mechanical' );
#117 = PRODUCT_DEFINITION_FORMATION_WITH_SPECIFIED_SOURCE( ' ', 'NONE', #59, .NOT_KNOWN. );
#118 = CLOSED_SHELL( '', ( #38, #36, #42, #40, #50, #58, #44, #52, #56, #54, #46, #48 ) );
#119 = CARTESIAN_POINT( '', ( 0.000000000000000, 0.000000000000000, 0.000000000000000 ) );
#120 = DIRECTION( '', ( 0.000000000000000, 0.000000000000000, 1.00000000000000 ) );
#121 = DIRECTION( '', ( 1.00000000000000, 0.000000000000000, 0.000000000000000 ) );
#122 =  ( LENGTH_UNIT(  )NAMED_UNIT( #68 )SI_UNIT( .MILLI., .METRE. ) );
#123 = SURFACE_SIDE_STYLE( '', ( #164 ) );
#124 = EDGE_LOOP( '', ( #165 ) );
#125 = EDGE_LOOP( '', ( #166, #167, #168, #169, #170, #171 ) );
#126 = AXIS2_PLACEMENT_3D( '', #172, #173, #174 );
#127 = SURFACE_SIDE_STYLE( '', ( #175 ) );
#128 = EDGE_LOOP( '', ( #176 ) );
#129 = EDGE_LOOP( '', ( #177 ) );
#130 = AXIS2_PLACEMENT_3D( '', #178, #179, #180 );
#131 = SURFACE_SIDE_STYLE( '', ( #181 ) );
#132 = EDGE_LOOP( '', ( #182, #183, #184, #185 ) );
#133 = AXIS2_PLACEMENT_3D( '', #186, #187, #188 );
#134 = SURFACE_SIDE_STYLE( '', ( #189 ) );
#135 = EDGE_LOOP( '', ( #190, #191, #192, #193 ) );
#136 = AXIS2_PLACEMENT_3D( '', #194, #195, #196 );
#137 = SURFACE_SIDE_STYLE( '', ( #197 ) );
#138 = EDGE_LOOP( '', ( #198 ) );
#139 = EDGE_LOOP( '', ( #199 ) );
#140 = AXIS2_PLACEMENT_3D( '', #200, #201, #202 );
#141 = SURFACE_SIDE_STYLE( '', ( #203 ) );
#142 = EDGE_LOOP( '', ( #204, #205, #206, #207 ) );
#143 = AXIS2_PLACEMENT_3D( '', #208, #209, #210 );
#144 = SURFACE_SIDE_STYLE( '', ( #211 ) );
#145 = EDGE_LOOP( '', ( #212, #213, #214, #215, #216, #217 ) );
#146 = AXIS2_PLACEMENT_3D( '', #218, #219, #220 );
#147 = SURFACE_SIDE_STYLE( '', ( #221 ) );
#148 = EDGE_LOOP( '', ( #222, #223, #224, #225 ) );
#149 = AXIS2_PLACEMENT_3D( '', #226, #227, #228 );
#150 = SURFACE_SIDE_STYLE( '', ( #229 ) );
#151 = EDGE_LOOP( '', ( #230 ) );
#152 = EDGE_LOOP( '', ( #231 ) );
#153 = AXIS2_PLACEMENT_3D( '', #232, #233, #234 );
#154 = SURFACE_SIDE_STYLE( '', ( #235 ) );
#155 = EDGE_LOOP( '', ( #236, #237, #238, #239 ) );
#156 = AXIS2_PLACEMENT_3D( '', #240, #241, #242 );
#157 = SURFACE_SIDE_STYLE( '', ( #243 ) );
#158 = EDGE_LOOP( '', ( #244, #245, #246, #247 ) );
#159 = AXIS2_PLACEMENT_3D( '', #248, #249, #250 );
#160 = SURFACE_SIDE_STYLE( '', ( #251 ) );
#161 = EDGE_LOOP( '', ( #252 ) );
#162 = AXIS2_PLACEMENT_3D( '', #253, #254, #255 );
#164 = SURFACE_STYLE_FILL_AREA( #256 );
#165 = ORIENTED_EDGE( '', *, *, #257, .F. );
#166 = ORIENTED_EDGE( '', *, *, #258, .T. );
#167 = ORIENTED_EDGE( '', *, *, #259, .T. );
#168 = ORIENTED_EDGE( '', *, *, #260, .T. );
#169 = ORIENTED_EDGE( '', *, *, #261, .T. );
#170 = ORIENTED_EDGE( '', *, *, #262, .T. );
#171 = ORIENTED_EDGE( '', *, *, #263, .T. );
#172 = CARTESIAN_POINT( '', ( 0.000000000000000, 0.000000000000000, 0.000000000000000 ) );
#173 = DIRECTION( '', ( 1.00000000000000, 0.000000000000000, -0.000000000000000 ) );
#174 = DIRECTION( '', ( -0.000000000000000, 0.000000000000000, -1.00000000000000 ) );
#175 = SURFACE_STYLE_FILL_AREA( #264 );
#176 = ORIENTED_EDGE( '', *, *, #265, .F. );
#177 = ORIENTED_EDGE( '', *, *, #257, .T. );
#178 = CARTESIAN_POINT( '', ( 0.000000000000000, 0.000000000000000, 0.000000000000000 ) );
#179 = DIRECTION( '', ( 1.00000000000000, -0.000000000000000, -0.000000000000000 ) );
#180 = DIRECTION( '', ( -0.000000000000000, 0.000000000000000, -1.00000000000000 ) );
#181 = SURFACE_STYLE_FILL_AREA( #266 );
#182 = ORIENTED_EDGE( '', *, *, #260, .F. );
#183 = ORIENTED_EDGE( '', *, *, #267, .F. );
#184 = ORIENTED_EDGE( '', *, *, #268, .T. );
#185 = ORIENTED_EDGE( '', *, *, #269, .T. );
#186 = CARTESIAN_POINT( '', ( 11.5000000000000, -13.8564064605510, 0.000000000000000 ) );
#187 = DIRECTION( '', ( -0.000000000000000, 0.866025403784439, 0.500000000000000 ) );
#188 = DIRECTION( '', ( 0.000000000000000, -0.500000000000000, 0.866025403784439 ) );
#189 = SURFACE_STYLE_FILL_AREA( #270 );
#190 = ORIENTED_EDGE( '', *, *, #259, .F. );
#191 = ORIENTED_EDGE( '', *, *, #271, .F. );
#192 = ORIENTED_EDGE( '', *, *, #272, .T. );
#193 = ORIENTED_EDGE( '', *, *, #267, .T. );
#194 = CARTESIAN_POINT( '', ( 11.5000000000000, -6.92820323027551, 12.0000000000000 ) );
#195 = DIRECTION( '', ( 0.000000000000000, 0.866025403784439, -0.500000000000000 ) );
#196 = DIRECTION( '', ( 0.000000000000000, 0.500000000000000, 0.866025403784439 ) );
#197 = SURFACE_STYLE_FILL_AREA( #273 );
#198 = ORIENTED_EDGE( '', *, *, #274, .F. );
#199 = ORIENTED_EDGE( '', *, *, #275, .T. );
#200 = CARTESIAN_POINT( '', ( 19.5002467198171, 0.000000000000000, 0.000000000000000 ) );
#201 = DIRECTION( '', ( -1.00000000000000, 0.000000000000000, -0.000000000000000 ) );
#202 = DIRECTION( '', ( 0.000000000000000, 0.000000000000000, 1.00000000000000 ) );
#203 = SURFACE_STYLE_FILL_AREA( #276 );
#204 = ORIENTED_EDGE( '', *, *, #263, .F. );
#205 = ORIENTED_EDGE( '', *, *, #277, .F. );
#206 = ORIENTED_EDGE( '', *, *, #278, .T. );
#207 = ORIENTED_EDGE( '', *, *, #279, .T. );
#208 = CARTESIAN_POINT( '', ( 11.5000000000000, 13.8564064605510, 0.000000000000000 ) );
#209 = DIRECTION( '', ( 0.000000000000000, -0.866025403784439, -0.500000000000000 ) );
#210 = DIRECTION( '', ( 0.000000000000000, 0.500000000000000, -0.866025403784439 ) );
#211 = SURFACE_STYLE_FILL_AREA( #280 );
#212 = ORIENTED_EDGE( '', *, *, #281, .F. );
#213 = ORIENTED_EDGE( '', *, *, #278, .F. );
#214 = ORIENTED_EDGE( '', *, *, #282, .F. );
#215 = ORIENTED_EDGE( '', *, *, #283, .F. );
#216 = ORIENTED_EDGE( '', *, *, #268, .F. );
#217 = ORIENTED_EDGE( '', *, *, #272, .F. );
#218 = CARTESIAN_POINT( '', ( 11.5000000000000, 0.000000000000000, 0.000000000000000 ) );
#219 = DIRECTION( '', ( 1.00000000000000, 0.000000000000000, 0.000000000000000 ) );
#220 = DIRECTION( '', ( 0.000000000000000, 0.000000000000000, -1.00000000000000 ) );
#221 = SURFACE_STYLE_FILL_AREA( #284 );
#222 = ORIENTED_EDGE( '', *, *, #258, .F. );
#223 = ORIENTED_EDGE( '', *, *, #279, .F. );
#224 = ORIENTED_EDGE( '', *, *, #281, .T. );
#225 = ORIENTED_EDGE( '', *, *, #271, .T. );
#226 = CARTESIAN_POINT( '', ( 11.5000000000000, 6.92820323027551, 12.0000000000000 ) );
#227 = DIRECTION( '', ( 0.000000000000000, 0.000000000000000, -1.00000000000000 ) );
#228 = DIRECTION( '', ( -1.00000000000000, 0.000000000000000, 0.000000000000000 ) );
#229 = SURFACE_STYLE_FILL_AREA( #285 );
#230 = ORIENTED_EDGE( '', *, *, #275, .F. );
#231 = ORIENTED_EDGE( '', *, *, #265, .T. );
#232 = CARTESIAN_POINT( '', ( 0.499753280182865, 0.000000000000000, 0.000000000000000 ) );
#233 = DIRECTION( '', ( -1.00000000000000, 0.000000000000000, -0.000000000000000 ) );
#234 = DIRECTION( '', ( 0.000000000000000, 0.000000000000000, 1.00000000000000 ) );
#235 = SURFACE_STYLE_FILL_AREA( #286 );
#236 = ORIENTED_EDGE( '', *, *, #262, .F. );
#237 = ORIENTED_EDGE( '', *, *, #287, .F. );
#238 = ORIENTED_EDGE( '', *, *, #282, .T. );
#239 = ORIENTED_EDGE( '', *, *, #277, .T. );
#240 = CARTESIAN_POINT( '', ( 11.5000000000000, 6.92820323027551, -12.0000000000000 ) );
#241 = DIRECTION( '', ( 0.000000000000000, -0.866025403784439, 0.500000000000000 ) );
#242 = DIRECTION( '', ( 0.000000000000000, -0.500000000000000, -0.866025403784439 ) );
#243 = SURFACE_STYLE_FILL_AREA( #288 );
#244 = ORIENTED_EDGE( '', *, *, #261, .F. );
#245 = ORIENTED_EDGE( '', *, *, #269, .F. );
#246 = ORIENTED_EDGE( '', *, *, #283, .T. );
#247 = ORIENTED_EDGE( '', *, *, #287, .T. );
#248 = CARTESIAN_POINT( '', ( 11.5000000000000, -6.92820323027551, -12.0000000000000 ) );
#249 = DIRECTION( '', ( 0.000000000000000, 0.000000000000000, 1.00000000000000 ) );
#250 = DIRECTION( '', ( 1.00000000000000, 0.000000000000000, -0.000000000000000 ) );
#251 = SURFACE_STYLE_FILL_AREA( #289 );
#252 = ORIENTED_EDGE( '', *, *, #274, .T. );
#253 = CARTESIAN_POINT( '', ( 20.0000000000000, 23.0872373395665, 0.000000000000000 ) );
#254 = DIRECTION( '', ( -1.00000000000000, 0.000000000000000, 0.000000000000000 ) );
#255 = DIRECTION( '', ( 0.000000000000000, 0.000000000000000, 1.00000000000000 ) );
#256 = FILL_AREA_STYLE( '', ( #290 ) );
#257 = EDGE_CURVE( '', #291, #291, #292, .T. );
#258 = EDGE_CURVE( '', #293, #294, #295, .T. );
#259 = EDGE_CURVE( '', #294, #296, #297, .T. );
#260 = EDGE_CURVE( '', #296, #298, #299, .T. );
#261 = EDGE_CURVE( '', #298, #300, #301, .T. );
#262 = EDGE_CURVE( '', #300, #302, #303, .T. );
#263 = EDGE_CURVE( '', #302, #293, #304, .T. );
#264 = FILL_AREA_STYLE( '', ( #305 ) );
#265 = EDGE_CURVE( '', #306, #306, #307, .T. );
#266 = FILL_AREA_STYLE( '', ( #308 ) );
#267 = EDGE_CURVE( '', #309, #296, #310, .T. );
#268 = EDGE_CURVE( '', #309, #311, #312, .T. );
#269 = EDGE_CURVE( '', #311, #298, #313, .T. );
#270 = FILL_AREA_STYLE( '', ( #314 ) );
#271 = EDGE_CURVE( '', #315, #294, #316, .T. );
#272 = EDGE_CURVE( '', #315, #309, #317, .T. );
#273 = FILL_AREA_STYLE( '', ( #318 ) );
#274 = EDGE_CURVE( '', #319, #319, #320, .T. );
#275 = EDGE_CURVE( '', #321, #321, #322, .T. );
#276 = FILL_AREA_STYLE( '', ( #323 ) );
#277 = EDGE_CURVE( '', #324, #302, #325, .T. );
#278 = EDGE_CURVE( '', #324, #326, #327, .T. );
#279 = EDGE_CURVE( '', #326, #293, #328, .T. );
#280 = FILL_AREA_STYLE( '', ( #329 ) );
#281 = EDGE_CURVE( '', #326, #315, #330, .T. );
#282 = EDGE_CURVE( '', #331, #324, #332, .T. );
#283 = EDGE_CURVE( '', #311, #331, #333, .T. );
#284 = FILL_AREA_STYLE( '', ( #334 ) );
#285 = FILL_AREA_STYLE( '', ( #335 ) );
#286 = FILL_AREA_STYLE( '', ( #336 ) );
#287 = EDGE_CURVE( '', #331, #300, #337, .T. );
#288 = FILL_AREA_STYLE( '', ( #338 ) );
#289 = FILL_AREA_STYLE( '', ( #339 ) );
#290 = FILL_AREA_STYLE_COLOUR( '', #340 );
#291 = VERTEX_POINT( '', #341 );
#292 = CIRCLE( '', #342, 23.7157626604000 );
#293 = VERTEX_POINT( '', #343 );
#294 = VERTEX_POINT( '', #344 );
#295 = LINE( '', #345, #346 );
#296 = VERTEX_POINT( '', #347 );
#297 = LINE( '', #348, #349 );
#298 = VERTEX_POINT( '', #350 );
#299 = LINE( '', #351, #352 );
#300 = VERTEX_POINT( '', #353 );
#301 = LINE( '', #354, #355 );
#302 = VERTEX_POINT( '', #356 );
#303 = LINE( '', #357, #358 );
#304 = LINE( '', #359, #360 );
#305 = FILL_AREA_STYLE_COLOUR( '', #361 );
#306 = VERTEX_POINT( '', #362 );
#307 = CIRCLE( '', #363, 24.2000572809000 );
#308 = FILL_AREA_STYLE_COLOUR( '', #364 );
#309 = VERTEX_POINT( '', #365 );
#310 = LINE( '', #366, #367 );
#311 = VERTEX_POINT( '', #368 );
#312 = LINE( '', #369, #370 );
#313 = LINE( '', #371, #372 );
#314 = FILL_AREA_STYLE_COLOUR( '', #373 );
#315 = VERTEX_POINT( '', #374 );
#316 = LINE( '', #375, #376 );
#317 = LINE( '', #377, #378 );
#318 = FILL_AREA_STYLE_COLOUR( '', #379 );
#319 = VERTEX_POINT( '', #380 );
#320 = CIRCLE( '', #381, 23.0872373396000 );
#321 = VERTEX_POINT( '', #382 );
#322 = CIRCLE( '', #383, 23.6029427191000 );
#323 = FILL_AREA_STYLE_COLOUR( '', #384 );
#324 = VERTEX_POINT( '', #385 );
#325 = LINE( '', #386, #387 );
#326 = VERTEX_POINT( '', #388 );
#327 = LINE( '', #389, #390 );
#328 = LINE( '', #391, #392 );
#329 = FILL_AREA_STYLE_COLOUR( '', #393 );
#330 = LINE( '', #394, #395 );
#331 = VERTEX_POINT( '', #396 );
#332 = LINE( '', #397, #398 );
#333 = LINE( '', #399, #400 );
#334 = FILL_AREA_STYLE_COLOUR( '', #401 );
#335 = FILL_AREA_STYLE_COLOUR( '', #402 );
#336 = FILL_AREA_STYLE_COLOUR( '', #403 );
#337 = LINE( '', #404, #405 );
#338 = FILL_AREA_STYLE_COLOUR( '', #406 );
#339 = FILL_AREA_STYLE_COLOUR( '', #407 );
#340 = COLOUR_RGB( '', 0.689999997600000, 0.689999997600000, 0.689999997600000 );
#341 = CARTESIAN_POINT( '', ( 0.000000000000000, 0.000000000000000, -23.7157626604335 ) );
#342 = AXIS2_PLACEMENT_3D( '', #408, #409, #410 );
#343 = CARTESIAN_POINT( '', ( 0.000000000000000, 6.92820323027551, 12.0000000000000 ) );
#344 = CARTESIAN_POINT( '', ( 0.000000000000000, -6.92820323027551, 12.0000000000000 ) );
#345 = CARTESIAN_POINT( '', ( 0.000000000000000, 6.92820323027551, 12.0000000000000 ) );
#346 = VECTOR( '', #411, 1000.00000000000 );
#347 = CARTESIAN_POINT( '', ( 0.000000000000000, -13.8564064605510, 0.000000000000000 ) );
#348 = CARTESIAN_POINT( '', ( 0.000000000000000, -6.92820323027551, 12.0000000000000 ) );
#349 = VECTOR( '', #412, 1000.00000000000 );
#350 = CARTESIAN_POINT( '', ( 0.000000000000000, -6.92820323027551, -12.0000000000000 ) );
#351 = CARTESIAN_POINT( '', ( 0.000000000000000, -13.8564064605510, 0.000000000000000 ) );
#352 = VECTOR( '', #413, 1000.00000000000 );
#353 = CARTESIAN_POINT( '', ( 0.000000000000000, 6.92820323027551, -12.0000000000000 ) );
#354 = CARTESIAN_POINT( '', ( 0.000000000000000, -6.92820323027551, -12.0000000000000 ) );
#355 = VECTOR( '', #414, 1000.00000000000 );
#356 = CARTESIAN_POINT( '', ( 0.000000000000000, 13.8564064605510, 0.000000000000000 ) );
#357 = CARTESIAN_POINT( '', ( 0.000000000000000, 6.92820323027551, -12.0000000000000 ) );
#358 = VECTOR( '', #415, 1000.00000000000 );
#359 = CARTESIAN_POINT( '', ( 0.000000000000000, 13.8564064605510, 0.000000000000000 ) );
#360 = VECTOR( '', #416, 1000.00000000000 );
#361 = COLOUR_RGB( '', 0.689999997600000, 0.689999997600000, 0.689999997600000 );
#362 = CARTESIAN_POINT( '', ( 0.499753280182865, 0.000000000000000, -24.2000572808944 ) );
#363 = AXIS2_PLACEMENT_3D( '', #417, #418, #419 );
#364 = COLOUR_RGB( '', 0.689999997600000, 0.689999997600000, 0.689999997600000 );
#365 = CARTESIAN_POINT( '', ( 11.5000000000000, -13.8564064605510, 0.000000000000000 ) );
#366 = CARTESIAN_POINT( '', ( 11.5000000000000, -13.8564064605510, 0.000000000000000 ) );
#367 = VECTOR( '', #420, 1000.00000000000 );
#368 = CARTESIAN_POINT( '', ( 11.5000000000000, -6.92820323027551, -12.0000000000000 ) );
#369 = CARTESIAN_POINT( '', ( 11.5000000000000, -13.8564064605510, 0.000000000000000 ) );
#370 = VECTOR( '', #421, 1000.00000000000 );
#371 = CARTESIAN_POINT( '', ( 11.5000000000000, -6.92820323027551, -12.0000000000000 ) );
#372 = VECTOR( '', #422, 1000.00000000000 );
#373 = COLOUR_RGB( '', 0.689999997600000, 0.689999997600000, 0.689999997600000 );
#374 = CARTESIAN_POINT( '', ( 11.5000000000000, -6.92820323027551, 12.0000000000000 ) );
#375 = CARTESIAN_POINT( '', ( 11.5000000000000, -6.92820323027551, 12.0000000000000 ) );
#376 = VECTOR( '', #423, 1000.00000000000 );
#377 = CARTESIAN_POINT( '', ( 11.5000000000000, -6.92820323027551, 12.0000000000000 ) );
#378 = VECTOR( '', #424, 1000.00000000000 );
#379 = COLOUR_RGB( '', 0.689999997600000, 0.689999997600000, 0.689999997600000 );
#380 = CARTESIAN_POINT( '', ( 20.0000000000000, 0.000000000000000, -23.0872373395665 ) );
#381 = AXIS2_PLACEMENT_3D( '', #425, #426, #427 );
#382 = CARTESIAN_POINT( '', ( 19.5002467198171, 0.000000000000000, -23.6029427191056 ) );
#383 = AXIS2_PLACEMENT_3D( '', #428, #429, #430 );
#384 = COLOUR_RGB( '', 0.689999997600000, 0.689999997600000, 0.689999997600000 );
#385 = CARTESIAN_POINT( '', ( 11.5000000000000, 13.8564064605510, 0.000000000000000 ) );
#386 = CARTESIAN_POINT( '', ( 11.5000000000000, 13.8564064605510, 0.000000000000000 ) );
#387 = VECTOR( '', #431, 1000.00000000000 );
#388 = CARTESIAN_POINT( '', ( 11.5000000000000, 6.92820323027551, 12.0000000000000 ) );
#389 = CARTESIAN_POINT( '', ( 11.5000000000000, 13.8564064605510, 0.000000000000000 ) );
#390 = VECTOR( '', #432, 1000.00000000000 );
#391 = CARTESIAN_POINT( '', ( 11.5000000000000, 6.92820323027551, 12.0000000000000 ) );
#392 = VECTOR( '', #433, 1000.00000000000 );
#393 = COLOUR_RGB( '', 0.689999997600000, 0.689999997600000, 0.689999997600000 );
#394 = CARTESIAN_POINT( '', ( 11.5000000000000, 6.92820323027551, 12.0000000000000 ) );
#395 = VECTOR( '', #434, 1000.00000000000 );
#396 = CARTESIAN_POINT( '', ( 11.5000000000000, 6.92820323027551, -12.0000000000000 ) );
#397 = CARTESIAN_POINT( '', ( 11.5000000000000, 6.92820323027551, -12.0000000000000 ) );
#398 = VECTOR( '', #435, 1000.00000000000 );
#399 = CARTESIAN_POINT( '', ( 11.5000000000000, -6.92820323027551, -12.0000000000000 ) );
#400 = VECTOR( '', #436, 1000.00000000000 );
#401 = COLOUR_RGB( '', 0.689999997600000, 0.689999997600000, 0.689999997600000 );
#402 = COLOUR_RGB( '', 0.689999997600000, 0.689999997600000, 0.689999997600000 );
#403 = COLOUR_RGB( '', 0.689999997600000, 0.689999997600000, 0.689999997600000 );
#404 = CARTESIAN_POINT( '', ( 11.5000000000000, 6.92820323027551, -12.0000000000000 ) );
#405 = VECTOR( '', #437, 1000.00000000000 );
#406 = COLOUR_RGB( '', 0.689999997600000, 0.689999997600000, 0.689999997600000 );
#407 = COLOUR_RGB( '', 0.689999997600000, 0.689999997600000, 0.689999997600000 );
#408 = CARTESIAN_POINT( '', ( 0.000000000000000, 0.000000000000000, 0.000000000000000 ) );
#409 = DIRECTION( '', ( 1.00000000000000, 0.000000000000000, -0.000000000000000 ) );
#410 = DIRECTION( '', ( -0.000000000000000, 0.000000000000000, -1.00000000000000 ) );
#411 = DIRECTION( '', ( 0.000000000000000, -1.00000000000000, 0.000000000000000 ) );
#412 = DIRECTION( '', ( 0.000000000000000, -0.500000000000000, -0.866025403784439 ) );
#413 = DIRECTION( '', ( 0.000000000000000, 0.500000000000000, -0.866025403784439 ) );
#414 = DIRECTION( '', ( 0.000000000000000, 1.00000000000000, 0.000000000000000 ) );
#415 = DIRECTION( '', ( 0.000000000000000, 0.500000000000000, 0.866025403784439 ) );
#416 = DIRECTION( '', ( 0.000000000000000, -0.500000000000000, 0.866025403784439 ) );
#417 = CARTESIAN_POINT( '', ( 0.499753280182865, 0.000000000000000, 0.000000000000000 ) );
#418 = DIRECTION( '', ( 1.00000000000000, 0.000000000000000, -0.000000000000000 ) );
#419 = DIRECTION( '', ( -0.000000000000000, 0.000000000000000, -1.00000000000000 ) );
#420 = DIRECTION( '', ( -1.00000000000000, -0.000000000000000, -0.000000000000000 ) );
#421 = DIRECTION( '', ( 0.000000000000000, 0.500000000000000, -0.866025403784439 ) );
#422 = DIRECTION( '', ( -1.00000000000000, -0.000000000000000, -0.000000000000000 ) );
#423 = DIRECTION( '', ( -1.00000000000000, -0.000000000000000, -0.000000000000000 ) );
#424 = DIRECTION( '', ( 0.000000000000000, -0.500000000000000, -0.866025403784439 ) );
#425 = CARTESIAN_POINT( '', ( 20.0000000000000, 0.000000000000000, 0.000000000000000 ) );
#426 = DIRECTION( '', ( 1.00000000000000, 0.000000000000000, -0.000000000000000 ) );
#427 = DIRECTION( '', ( -0.000000000000000, 0.000000000000000, -1.00000000000000 ) );
#428 = CARTESIAN_POINT( '', ( 19.5002467198171, 0.000000000000000, 0.000000000000000 ) );
#429 = DIRECTION( '', ( 1.00000000000000, 0.000000000000000, -0.000000000000000 ) );
#430 = DIRECTION( '', ( -0.000000000000000, 0.000000000000000, -1.00000000000000 ) );
#431 = DIRECTION( '', ( -1.00000000000000, -0.000000000000000, -0.000000000000000 ) );
#432 = DIRECTION( '', ( 0.000000000000000, -0.500000000000000, 0.866025403784439 ) );
#433 = DIRECTION( '', ( -1.00000000000000, -0.000000000000000, -0.000000000000000 ) );
#434 = DIRECTION( '', ( 0.000000000000000, -1.00000000000000, 0.000000000000000 ) );
#435 = DIRECTION( '', ( 0.000000000000000, 0.500000000000000, 0.866025403784439 ) );
#436 = DIRECTION( '', ( 0.000000000000000, 1.00000000000000, 0.000000000000000 ) );
#437 = DIRECTION( '', ( -1.00000000000000, -0.000000000000000, -0.000000000000000 ) );
ENDSEC;
END-ISO-10303-21;
